» » »

Sad Machines Bass tabs (ver.1)

Artists:  A B C D E F G H I J K L M N O P Q R S T U V W X Y Z # 

Sad Machines Bass tabs (ver.1)

Project 86
Rating:
0/5 (0 votes)

Hard to play? Try these video lessons and learn fast.
                Good Song, pretty simple.
By E.R.
drop d tuning

Intro

G -----------------------------------------------
D -----------------------------------------------   repeat a couple times
A -2--22-22-22-2--22-0333555---------------------  
D ------0-----0-----0----------------------------

Verse

G -----------------------------------------------
D -----------------------------------------------   Play a lot
A -22222222222000000333555-----------------------
D -----------------------------------------------

Chorus

G -----------------------------------------------
D ----4----4-------------------------------------
A -2-5-5-25-5-000000333555-----------------------
D -----------------------------------------------
            
Hard to play? Try these video lessons and learn fast. | Correct




comments powered by Disqus
↑ Back to top | Tablatures and chords are parodies/interpretations of the original songs. You may use it for private study, scholarship, research or language learning purposes only