» » »

Project 86, Pipe Dream Tabs (ver.1)

Artists:  A B C D E F G H I J K L M N O P Q R S T U V W X Y Z # 

Pipe Dream Tabs (ver.1)

Project 86 Tabs
 Rating:
4/5 (4 votes)
Pipe Dream lessons Tabs too difficult? Try these video lessons and learn fast
                intro:

e--------------------------------
b--------------------------------
g--------------------------------
d--------------------------------
a--------------------------------
d-0-14-0-14-0-14-0-14-15-15-15-15


verse:

e--------------------
b--------------------
g--------------------
d-0-2-x-2-0-2-2-2-2-3
a-0-2-x-2-0-2-2-2-2-3
d-0-2-x-2-0-2-2-2-2-3


prechorus:

e-------------------------------------------
b-------------------------------------------
g-------------------------------------------
d-4h5-x-5p4--4h5-x-5p4--4h5-x-5p4--4h5-x-5p4
a-4h5-x-5p4--4h5-x-5p4--4h5-x-5p4--4h5-x-5p4
d-4h5-x-5p4--4h5-x-5p4--4h5-x-5p4--4h5-x-5p4


chorus:

e-------------
b-------------
g-------------
d-6--3-5-0-3-5
a-6--3-5-0-3-5
d-6--3-5-0-3-5


bridge back to chorus:

e------------------------
b------------------------
g------------------------
d------------------------
a------------------------
d-0-2-0-2-0-2-0-2-3-3-3-3

before bridge:

e-----------------------
b-----------------------
g-----------------------
d-0-0-0-00--------------
a-0-0-0-00--------------
d-0-0-0-00-11-12-11-10/7
  * * * **

last part of song just repeat this:

e----------------------------
b----------------------------
g----------------------------
d-5--5-5--0--0-0--8-8-8-8-8-8
a-5--5-5--0--0-0--8-8-8-8-8-8
d-5--5-5--0--0-0--8-8-8-8-8-8
            
Submit corrections

comments powered by Disqus
↑ Back to top | Project 86 Tabs for Pipe Dream. Lyrics for acoustic guitar and electric guitar. Tablatures and chords are parodies/interpretations of the original songs. You may use it for private study, scholarship, research or language learning purposes only