» » »

Project 86, One Armed Manplay On Bass tabs (ver.1)

Artists:  A B C D E F G H I J K L M N O P Q R S T U V W X Y Z # 

One Armed Manplay On Bass tabs (ver.1)

Project 86 Tabs
 Rating:
4/5 (4 votes)
One Armed Manplay On lessons Tabs too difficult? Try these video lessons and learn fast
                Tuning (D A D G)

Intro and Verse:
G|----------------------------------------------|
D|-----------3-3-3-5-5-5------------3-3-3-------|
A|---5----5-----------------5----5--------3-3-3-|
D|-0----0-----------------0----0----------------|

Chorus:
G|--------------------------------|
D|--------------------------------|
A|---5--5--5--5---3-3-3-3-3-3-3-3-|
D|-00--0--0--0-0------------------|

Bridge Part 1:
G|-------------------|
D|-------------------|
A|-5---------------3-|
D|---0-3-3-00000-3---|

Bridge Part 2:
G|--------------|
D|--------------|
A|-5---3--------|
D|---3---5--5-3-|

Bridge part 3:
G|-----------|
D|-----------| 
A|-----------|
D|-810003500-| ---->8 10 0 0, Not 8 1 0 0 0

Outro:
G|-----|
D|-----|
A|-5-5-|
D|-----|
            
Submit corrections

comments powered by Disqus
↑ Back to top | Project 86 Bass for One Armed Manplay On. Lyrics for acoustic guitar and electric guitar. Tablatures and chords are parodies/interpretations of the original songs. You may use it for private study, scholarship, research or language learning purposes only