>
 >
Oblivion

Oblivion Bass Tabs

Project 86 - Oblivion chords, tabs, tablatures, lyrics

Guitar lessons | Add/correct | Request | Top 50 tabs Artists:  A B C D E F G H I J K L M N O P Q R S T U V W X Y Z 0-9

Oblivion Bass Tabs – Project 86

CD, Sheet music, Poster

Do you like Oblivion? Share with your friends now
Bass TabsTabs
This is by far the most creative and innovative Project 86 albums yet.  I urge you to
about 10 minutes to tab this, it's an easy song to play really...just hear the bass and
play this tab with it.  It's played very high on the next, you can tell it on the track,
and it would be very tough to play on octaves.  So play it this way, and you'll be fine.

Tuning: Drop-D (DADG, low to high)

Intro: 4x

G|--------------------------------------------------
D|--------------------------------------------------
A|----------------------------------------------9-7-
D|-0-11-0-11-0-9-0-9-0-9-11-0-11-0-11-0-9-0-9-0-----

Verse pt. 1: 3x

G|--------------------------------------------------------------------------
D|--------------------------------------------------------------------------
A|--------------------------------------------------------------------------
D|-5-5-5-5-5-5-0-0-0-0/7-7-7-7-9-11-11-11-11-11-11-11-9-11-11-11-9-11-11-11-

Verse pt. 2: 1x

G|-------------------------------------------
D|-------------------------------------------
A|-------------------------------------------
D|-5-5-5-5-5-5-0-0-0-0/7-7-7-7-9/0---7-0-9-0-

Chorus: 2x

G|-----------------------------------------------------------------------------------------
D|-----------------------------------------------------------------------------------------
A|-------------------------7-7-7-7-9-9-9-9-9-9-------------------------7-7-7-7-------------
D|-11-11-11-11-9-9-9-9-9-9---------------------11-11-11-11-9-9-9-9-9-9---------7-7-7-7-7-7-

Verse pt. 1: 3x

G|--------------------------------------------------------------------------
D|--------------------------------------------------------------------------
A|--------------------------------------------------------------------------
D|-5-5-5-5-5-5-0-0-0-0/7-7-7-7-9-11-11-11-11-11-11-11-9-11-11-11-9-11-11-11-

Verse pt. 2: 1x

G|-------------------------------------------
D|-------------------------------------------
A|-------------------------------------------
D|-5-5-5-5-5-5-0-0-0-0/7-7-7-7-9/0---7-0-9-0-

Chorus: 2x

G|-----------------------------------------------------------------------------------------
D|-----------------------------------------------------------------------------------------
A|-------------------------7-7-7-7-9-9-9-9-9-9-------------------------7-7-7-7-------------
D|-11-11-11-11-9-9-9-9-9-9---------------------11-11-11-11-9-9-9-9-9-9---------7-7-7-7-7-7-

Bridge pt. 1: 1x

G|------------------
D|------------------
A|----------7*--9*--
D|-11*--9*----------

Bridge pt. 2: 4x

G|------------------
D|------------------
A|----------7*------
D|-11*--9*------7*--

Bridge pt. 3: 1x

G|--------------
D|--------------
A|--------------
D|-9*-11*-9*-7*-

Guitar Solo pt. 1: 2x

G|---------------------------------------------------------
D|---------------------------------------------------------
A|---------------------------------------------------------
D|-11-11-11-11-11-11-9-9-9-9-9-9-7-7-7-7-7-9-0-0-9-0-0-9-0-

Guitar Solo pt. 2: 2x

G|-----------------------------------------------------------
D|-----------------------------------------------------------
A|-------------------9-9-9-9-9-9-----------------------------
D|-11-11-11-11-11-11-------------7-7-7-7-7-7-9-0-0-9-0-0-9-0-

Verse pt. 1: 3x

G|--------------------------------------------------------------------------
D|--------------------------------------------------------------------------
A|--------------------------------------------------------------------------
D|-5-5-5-5-5-5-0-0-0-0/7-7-7-7-9-11-11-11-11-11-11-11-9-11-11-11-9-11-11-11-

Verse pt. 2: 1x

G|-------------------------------
D|-------------------------------
A|-------------------------------
D|-5-5-5-5-5-5-0-0-0-0/7-7-7-7-9*

Chorus: 2x

G|-----------------------------------------------------------------------------------------
D|-----------------------------------------------------------------------------------------
A|-------------------------7-7-7-7-9-9-9-9-9-9-------------------------7-7-7-7-------------
D|-11-11-11-11-9-9-9-9-9-9---------------------11-11-11-11-9-9-9-9-9-9---------7-7-7-7-7-7-

Outro: 1x

G|-----------------
D|-----------------
A|-----------------
D|-9*-11*-9*-11-9*-

A lot of parts but very easy song!  You should set your printer to print to landscape to get everything!  any ?s and comments...e-mail me...God bless!





Comments


Popular Project 86 tabs & chords
Run Bass Tabs
Stein's Theme 1 Bass Tabs
Subject To Change Bass Tabs
Evil A Chorus Of Resistance Chords
1 X 7 Intro Tabs
A Fruitless End Ever Tabs
Sanctuary Hum Tabs
Sincerely, Ichabod Tabs
Something We Cant Be Tabs
To Sand We Return Tabs


Song lyrics



↑ Back to top | Tablatures and chords are parodies/interpretations of the original songs. You may use it for private study, scholarship, research or language learning purposes only
© 2014 AZChords.com Contact us | Privacy policy | DMCA | Add/correct tabs | Request tabs | Top 50 tabs