>
 >
My Will Be A Dead Man

My Will Be A Dead Man Bass Tabs

Project 86 - My Will Be A Dead Man chords, tabs, tablatures, lyrics

Guitar lessons | Add/correct | Request | Top 50 tabs Artists:  A B C D E F G H I J K L M N O P Q R S T U V W X Y Z 0-9

My Will Be A Dead Man Bass Tabs – Project 86

CD, Sheet music, Poster

Do you like My Will Be A Dead Man? Share with your friends now
Bass TabsTabs

truly a furious song. Long live project 86 and Team Black.

Intro

G|-------------|
D|-------------|
A|-------------|
D|-33---335500-|

Verse

G|--------------------------------|
D|--------------------------------|
A|--------------------------------|
D|-33-3330033-0335500-000-000-000-|


Chorus

G|------------------------------|
D|-----------3------------------|
A|--------3-6----5-------5------|
D|-3-0303------00-0006000-00653-|


Bridge
G|--------|
D|--------|
A|--------|X20
D|-0~-000-|

G|------------|
D|------------|
A|------------|
D|-653---6530-|

G|-------------------|
D|-------------------|
A|----5-------5------|x3
D|--00-0006000-06530-|

G|--------------------------------|
D|--------------------------------|
A|----5-------5-------------------|
D|--00-0006000-065333--335500-000-|


God Bless





Comments


Popular Project 86 tabs & chords
Evil (A Chorus Of Resistance) 1 Bass Tabs
Hollow Again 1 Bass Tabs
Set Me Up Bass Tabs
The Spy Hunter 2 Bass Tabs
Another Boredom Movement Tabs
Evil (A Chorus Of Resistance) Tabs
Me Against Me Tabs
Rte 66 Tabs
Smc (Intro) Tabs
Toast To My Former Self Tabs


Song lyrics



↑ Back to top | Tablatures and chords are parodies/interpretations of the original songs. You may use it for private study, scholarship, research or language learning purposes only
© 2014 AZChords.com Contact us | Privacy policy | DMCA | Add/correct tabs | Request tabs | Top 50 tabs