>
 >
Evil (A Chorus Of Resistance)

Evil (A Chorus Of Resistance) Bass Tabs

Project 86 - Evil (A Chorus Of Resistance) chords, tabs, tablatures, lyrics

Guitar lessons | Add/correct | Request | Top 50 tabs Artists:  A B C D E F G H I J K L M N O P Q R S T U V W X Y Z 0-9

Evil (A Chorus Of Resistance) Bass Tabs – Project 86

CD, Sheet music, Poster

Do you like Evil (A Chorus Of Resistance)? Share with your friends now
Bass TabsBass Tabs v2TabsTabs v2
-------------------------------------------------------------------------------
			     Evil - Project 86
-------------------------------------------------------------------------------


this is my first tab so let me know if anythings wrong.

| /  slide up
| \  slide down
| h  hammer-on
| p  pull-off
| ~  vibrato
| +  harmonic
| x  Mute note

Tuning:DADG
Intro x2(after the 7's is a ten)
G|---------------------------------------------------------------------------|
D|---------------------------------------------------------------------------|
A|---------------------------------------------------------------------------|
D|0-0-8-7-7-7-10-7-7-7-7-12h15-12h15-0-0-8-7-7-7-10-7-7-7-7-5-5-5------------|

1st Verse pt.1(play this the 1st and 3rd time through)
G|---------------------------------------------------------------------------|
D|-7-7-7-7-------------------------------------------------------------------|
A|---------8-8-8-8-5-5-5-5-4-4-4-4-5-5-5-5-8-8-8-8-10-10-10-10-4-4-4-4---|
D|---------------------------------------------------------------------------|

1st Verse pt.2 (play this the 2nd time)
G|---------------------------------------------------------------------------|
D|-7-7-7-7-------------------------------------------------------------------|
A|---------8-8-8-8-5-5-5-5-4-4-4-4-5-5-5-5-8-8-8-8-10-10-10-10-10-10-10-10---|
D|---------------------------------------------------------------------------|

1st Verse pt.3 (play this the last time through the verse)
G|---------------------------------------------------------------------------|
D|-7-7-7-7-------------------------------------------------------------------|
A|---------8-8-8-8-5-5-5-5-4-4-4-4-5-5-5-5-8-8-8-8-10-10-10-10-10------------|
D|-----------------------------------------------------------------0/12\0----|

Chorus (x2)
G|---------------------------------------------------------------------------|
D|---------------------------------------------------------------------------|
A|---------------------------------------------------------------------------|
D|0-0-8-7-7-7-10-7-7-7-7-12h15-12h15-0-0-8-7-7-7-10-7-7-7-7-7-5-5-5----------|

2nd Verse (same as 1st verse)
2nd Chorus (same as first, but play it x4)

Bridge/Guitar Solo/whatever you want to call it (x4)
G|---------------------------------------------------------------------------|
D|---------------------------------------------------------------------------|
A|-5-3-0-5-3-0-5-3-0-5-3-0-5-3-0-5-3-0---------------------------------------|
D|-------------------------------------5-3-----------------------------------|

Chorus (enter halfway through)
then Chorus x2
Outro (play Chorus)





Comments


Popular Project 86 tabs & chords
Oblivion Bass Tabs
Rebuttal 3 Bass Tabs
Set Me Up 3 Bass Tabs
A Fruitless End Ever Tabs
A Shadow On Me Tabs
Say Goodnight To The Bad Guy Tabs
Six Sirens Tabs
Something We Cant Be Tabs
Team Black Tabs
Your Heroes Are Dead Tabs


Song lyrics



↑ Back to top | Tablatures and chords are parodies/interpretations of the original songs. You may use it for private study, scholarship, research or language learning purposes only
© 2014 AZChords.com Contact us | Privacy policy | DMCA | Add/correct tabs | Request tabs | Top 50 tabs