» » »

Project 86, Breakdown In 3 Tabs (ver.1)

Artists:  A B C D E F G H I J K L M N O P Q R S T U V W X Y Z # 

Breakdown In 3 Tabs (ver.1)

Project 86 Tabs
Rating:
5/5 (1 vote)
Hard to play? Try these video lessons and learn fast.
                "(4)
Breakdown In 3/4
c2004 Tooth and Nail

Drop D tuning

Intro/Verse

E--------------------------------------------------|
B--------------------------------------------------|
G--------------------------------------------------|
D------3-5-3-----0-0---0-5-----3-5-3-----0-0---3-0-|
A----5-------0-1-----3-------5-------0-1-----3-----|
D--0-----------------------0-----------------------|

Chorus

E----------------------------------------------------------|
B----------------------------------------------------------|
G------------------------------9/10\-9---------------------|
D--5---3---7---0---5---3---7---x--x--x--5---3---7---8---10-|
A--5---3---7---0---5---3---7---7/-8\-7--5---3---7---8---10-|
D--5---3---7---0---5---3---7------------5---3---7---8---10-|

Bridge

a couple times    then add         stick this in somewhere
G----10---9-      G----7---5-      G---------|
D--0--x-0-x-      D--0-x-0-x-      D--8-10-0-|
A--0--8-0-7-      A--0-5-0-3-      A--8-10-0-|
D--0----0---      D--0---0---      D--8-10-0-|

Bridge cont.

E------------------------------------------|
B------------------------------------------|
G------------------------------------------|
D------------------------------------------|
A--------5-------6-----------5-8-6-5-5-6-5-|
D--0-0-0---0-0-0---X3--0-0-0---------------|

Solo

E----------------------------------------------------------------------|
B----10---10---10---10---10----11-10-8-----8----8----8----8----8-------|
G--7----7----7----7----7----7-----------10---10---10---10---10---10-12-|
D----------------------------------------------------------------------|
A----------------------------------------------------------------------|
D----------------------------------------------------------------------|

E---------------------------------------------------------------------|
B----10---10---10---10---10----11-10-8----8----8----8----8----8-------|
G--7----7----7----7----7-----7---------10---10---10---10---10---10-9--|
D---------------------------------------------------------------------|
A---------------------------------------------------------------------|
D---------------------------------------------------------------------|

I think that's it...
"            

comments powered by Disqus
↑ Back to top | Project 86 Tabs for Breakdown In 3. Lyrics for acoustic guitar and electric guitar. Tablatures and chords are parodies/interpretations of the original songs. You may use it for private study, scholarship, research or language learning purposes only