» » »

Stand Up Bass tabs (ver.1)

Artists:  A B C D E F G H I J K L M N O P Q R S T U V W X Y Z # 

Stand Up Bass tabs (ver.1)

Prodigy
Rating:
0/5 (0 votes)

Hard to play? Try these video lessons and learn fast.
                
			     STAND UP - The Prodigy


Tuning: Standard Tuning

Intro: Wait until bass comes in

G|-------------------------------------------------------------------------------------|
D|-------------------------------------------------------------------------------------|
A|-------------------------------------------------------------------------------------|
E|-9--9--9-9-9-9-9-9--9-7--7--7-7-7-7-7-7--7-2--2--2-2-2-2-2-2--2-9--9--9-9-9-9-9-9--9-|
x2

G|-------------------------------------------------------------------------------------|
D|-------------------------------------------------------------------------------------|
A|-------------------------------------------------------------------------------------|
E|-9-9--9-9-9--9-9-9--9-9-9--9-9-7-7x7-7-7x7-7-7x7-7-7x7-7-----------------------------|
x3

Again wait until bass comes in

G|-------------------------------------------------------------------------------------|
D|-------------------------------------------------------------------------------------|
A|-------------------------------------------------------------------------------------|
E|-9--9--9-9-9-9-9-9--9-7--7--7-7-7-7-7-7--7-2--2--2-2-2-2-2-2--2-9--9--9-9-9-9-9-9--9-|
x4

G|-------------------------------------------------------------------------------------|
D|-------------------------------------------------------------------------------------|
A|-------------------------------------------------------------------------------------|
E|-9-9-9-9-9-9-9-9-9-9-9-9-9-9-9-9-7-7x7-7-7-7x7-7-7-7x7-7-7---------------------------|

G|-------------------------------------------------------------------------------------|
D|-------------------------------------------------------------------------------------|
A|-------------------------------------------------------------------------------------|
E|-9-9-9-9-9-9-9-9-9-9-9-9-9-9-9-9-7-7x7-7-7-7x7-7-7-7x7-7-----------------------------|

Again wait for bass to come in

G|-------------------------------------------------------------------------------------|
D|-------------------------------------------------------------------------------------|
A|-------------------------------------------------------------------------------------|
E|-7-7-7--7--7-7-10-10-10-10-10-10-9-9-9--9--9-9-10-10-10-10-10-10---------------------|
x7

G|-------------------------------------------------------------------------------------|
D|-------------------------------------------------------------------------------------|
A|-------------------------------------------------------------------------------------|
E|-7-7-7--7--7-7-10-10-10-10-10-10-9-9-9--9--9-9-10-10-10------------------------------|

Again wait for bass to come in

G|-------------------------------------------------------------------------------------|
D|-------------------------------------------------------------------------------------|
A|-------------------------------------------------------------------------------------|
E|-9--9--9-9-9-9-9-9--9-7--7--7-7-7-7-7-7--7-2--2--2-2-2-2-2-2--2-9--9--9-9-9-9-9-9--9-|
x6

Now stand up and whistle the tune

| /  slide up
| \  slide down
| h  hammer-on
| p  pull-off
| ~  vibrato
| +  harmonic
| x  Mute note
            
Hard to play? Try these video lessons and learn fast. | Correct




comments powered by Disqus
↑ Back to top | Tablatures and chords are parodies/interpretations of the original songs. You may use it for private study, scholarship, research or language learning purposes only