» » »

Prodigy, Smack My Bitch Up Tabs (ver.1)

Artists:  A B C D E F G H I J K L M N O P Q R S T U V W X Y Z # 

Smack My Bitch Up Tabs (ver.1)

Prodigy Tabs
 Rating:
4/5 (5 votes)
Smack My Bitch Up lessons Tabs too difficult? Try these video lessons and learn fast
1
                
Standard Tuning (eBGDAE)

INTRO (OR JUST PLAY THE C# ON THE G STRING)

e|-------------------------------|
B|-------------------------------|
G|-6---6---6---6---6---6---6-6-6-|
D|-x---x---x---x---x---x---x-x-x-|
A|-4---4---4---4---4---4---4-4-4-|
E|-------------------------------|

BASS PART

e-----------------------------------------|
B-----------------------------------------|
G-----------------------------------------|
D-----------------------------------------|
A-----------------------------------------|
E--6-6--6-6-6-6-6-6--6--6-6-6-6-6-4-4-6---|

GUITAR (REPEAT UNTIL "WOW" SOUND)

e|-----------------------------|
B|-----------------------------|
G|-----------------------------|
D|-----------------------------|
A|-8-8--8-8-8--8-8-8--8-6-6--8-|
E|-6-6--6-6-6--6-6-6--6-4-4--6-|

"WOW" SOUND IS A Bb (b = bend)
REPEAT 3 TIMES

e|--------------------------------------|
B|--11b---------------------------------|
G|--------------------------------------|
D|------8-8-8-8-8-8-8-8-8-8-8-8-8-8-8-8-|
A|--------------------------------------|
E|--------------------------------------|

THEN PLAY (ONCE)

e|-----------------|
B|-----------------|
G|-6-6-6-6-6-6-6-6-|
D|-----------------|
A|-----------------|
E|-----------------|

RIFF AT 1:46 (you don't have to play the Bb "WOW", you can just play the Bb5 chord instead)

e|-----------------------------------------|
B|-11b-------------------------------------|
G|-----------------------------------------|
D|----8-8-8--6-6-9-6-8--8-8-8-8--4-4-7-4-6-|
A|----8-8-8-------------8-8-8-8------------|
E|----6-6-6-------------6-6-6-6------------|

2:14

e|---------------------------------|
B|---------------------------------|
G|---------------------------------|
D|---------------------------------|
A|-8--8--8-8--8--8-8--8--8-8--8--8-|
E|-6--6--6-6--6--6-6--6--6-6--6--6-|

4:56

e|---------------------------------|
B|---------------------------------|
G|---------------------------------|
D|-8-8-8-8-8-8-8-8-8-8-8-8-8-8-8-8-|
A|---------------------------------|
E|---------------------------------|

AND SO ON, YOU'LL FIGURE OUT WHAT GOES WHERE!

THANKS, AND RATE PLEASE
            
Submit corrections

comments powered by Disqus
↑ Back to top | Prodigy Tabs for Smack My Bitch Up. Lyrics for acoustic guitar and electric guitar. 1 Tablatures and chords are parodies/interpretations of the original songs. You may use it for private study, scholarship, research or language learning purposes only