» » »

Prodigy, Run With The Wolves Tabs (ver.1)

Artists:  A B C D E F G H I J K L M N O P Q R S T U V W X Y Z # 

Run With The Wolves Tabs (ver.1)

Prodigy Tabs
 Rating:
4/5 (4 votes)
Run With The Wolves lessons Tabs too difficult? Try these video lessons and learn fast
1
                
Tuning: Standard (eBGDAE)

Intro/verse/outro chords:

e---------------------------|
B---------------------------|
G---------------------------|
D-4---------4-4-------------|
A-4---------4-4-------------|
E-2---------2-2-------------|

Riff (0:35):

e-----------------------------------|
B-----------------------------------|
G-----------------------------------|
D-----10-10-----9-9-----7-7-----9-9-|
A-9-9-------9-9-----9-9-----9-9-----|
E-----------------------------------|

The parts between verses are difficult to make out, but I think this is played live:

e---------------------------------|
B---------------------------------|
G-----5-5-----4-4-----2-2-----4-4-|
D-4-4-5-5-4-4-4-4-4-4-2-2-4-4-4-4-|
A-4-4-3-3-4-4-2-2-4-4-0-0-4-4-2-2-|
E-2-2-----2-2-----2-2-----2-2-----|

Bridge (2:29):

e----------------------|
B----------------------|
G----------------------|
D-------4-4--------4-4-|
A-------4-4--------4-4-|
E-------2-2--------2-2-|
            
Submit corrections

comments powered by Disqus
↑ Back to top | Prodigy Tabs for Run With The Wolves. Lyrics for acoustic guitar and electric guitar. 1 Tablatures and chords are parodies/interpretations of the original songs. You may use it for private study, scholarship, research or language learning purposes only