» » »

Prodigy, Run With The Wolves Bass tabs (ver.1)

Artists:  A B C D E F G H I J K L M N O P Q R S T U V W X Y Z # 

Run With The Wolves Bass tabs (ver.1)

Prodigy Tabs
 Rating:
4/5 (5 votes)
Run With The Wolves lessons Tabs too difficult? Try these video lessons and learn fast
                Heres an awesome prodigy song! didnt know that dave grohl played the drums
for this song:O the bass line is pritty simple just following the guitar
and beat. sorry if i miss anything. the main riff was sceatchy cuz you cant
hear the bass that well:\ anyway i think its correct :D comment before rate
please :)

Normal tuning
G|
D|
A|
E|

intro
|-----------|
|-----------|
|-----------| x6
|-2----2--2-|

bass fill
|------------------|
|------------------|
|-333333-2222-0000-|
|------------------|

interlude
|---------------------|
|---------------------|
|---------------------|
|-2----2----2----2----|

verse
|-------------------------|
|-------------------------|
|----33----22----00----22-| x8
|-22----22----22----22----|

interlude
|-----------|
|-----------|
|-----------| x8
|-2----2--2-|

main riff
|------------------------|----------------------|
|------------------------|----------------------|
|----3-2-0---------------|---3-2-0----------5---|
|-2--------2--2-2-2--5-2-|-2-------2--2-2-2---5-|

|------------------------|-------------4---4---4-|
|------------------------|-----------------------|
|----3-2-0---------------|-222222222-2---2---2---| x2
|-2--------2--2-2-2--5-2-|-----------------------|

interlude
|-----------|
|-----------|
|-----------| x4
|-2----2--2-|

main riff
|------------------------|----------------------|
|------------------------|----------------------|
|----3-2-0---------------|---3-2-0----------5---|
|-2--------2--2-2-2--5-2-|-2-------2--2-2-2---5-|

|------------------------|-------------4---4---4-|
|------------------------|-----------------------|
|----3-2-0---------------|-222222222-2---2---2---| x2
|-2--------2--2-2-2--5-2-|-----------------------|

bridge
|------------------|----------------|
|------4-4-4---4-4-|-----4-4-4------|
|------------------|----------------| X4
|-2-2--------------|-2-2-------\\\\-|

|---------------------|
|---------------------|
|---------------------|
|-2----2----2----2----|

interlude
|-----------|
|-----------|
|-----------| x4
|-2----2--2-|

main riff
|------------------------|----------------------|
|------------------------|----------------------|
|----3-2-0---------------|---3-2-0----------5---|
|-2--------2--2-2-2--5-2-|-2-------2--2-2-2---5-|

|------------------------|-------------4---4---4-|
|------------------------|-----------------------|
|----3-2-0---------------|-222222222-2---2---2---| x2
|-2--------2--2-2-2--5-2-|-----------------------|

Outro
|------------------|----------------|
|------4-4-4---4-4-|-----4-4-4------|
|------------------|----------------| X4
|-2-2--------------|-2-2-------\\\\-|

|----------|
|----------|
|----------|
|-2----2-2-|

and thats it :) 

love peace and chicken grease :) by AJ :P
            
Submit corrections

comments powered by Disqus
↑ Back to top | Prodigy Bass for Run With The Wolves. Lyrics for acoustic guitar and electric guitar. Tablatures and chords are parodies/interpretations of the original songs. You may use it for private study, scholarship, research or language learning purposes only