» » »

Omen Bass tabs (ver.1)

Artists:  A B C D E F G H I J K L M N O P Q R S T U V W X Y Z # 

Omen Bass tabs (ver.1)

Prodigy
Rating:
5/5 (6 votes)

Hard to play? Try these video lessons and learn fast.
                Oocha, here prodigy's singel tabed out for ya ;) sorry if i miss any fills
or anything. And some of the notes you might have to play for longer, its
just i cant fit it all in the box thing. anyway pritty east tune, sounds
better with distortion ;)

normal tuning
G
D
A
E

intro
|----------------------------------------9-------------------------------|
|------------------------------------------9-----------------------------|
|---2--2-2-2--2--2-2-2---------------------------------------------------|
|-\---------------------3--3-3-3--5--5-5----0--0-0-0--3--3-3-3--5--5-5-5-|

verse
|--------------------------------------------|
|--------------------------------------------|
|-2--2-2-2--2--2-2-2--2--2-2-2--2------------| x2
|----------------------------------5-4-3-2-1-|

interlude
|-----------------------|
|-----------------------|
|-----------------------|
|-\--3--3-3-3--5--5-5-5-|

main riff                                                              x2
|---------------------------------------9-------------------------------|
|-----------------------------------------9-----------------------------|
|--2--2-2-2--2--2-2-2---------------------------------------------------|
|----------------------3--3-3-3--5--5-5----0--0-0-0--3--3-3-3--5--5-5-5-|

verse
|--------------------------------------------9---|
|----------------------------------------------9-|
|-2--2-2-2--2--2-2-2-----------------------------| x2
|---------------------5-4-3-2-1----5-4-3-2-1-----|

interlude
|-----------------------|
|-----------------------|
|-----------------------|
|-\--3--3-3-3--5--5-5-5-|

main riff
|----------------------------------------9-------------------------------|
|------------------------------------------9-----------------------------|
|---2--2-2-2--2--2-2-2---------------------------------------------------|
|-\---------------------3--3-3-3--5--5-5----0--0-0-0--3--3-3-3--5--5-5-5-|

verse
|--------------------------------------------|
|--------------------------------------------|
|-2--2-2-2--2--2-2-2--2--2-2-2--2------------| x2
|----------------------------------5-4-3-2-1-|

bridge/outro
|------------------------------------------------9---|
|--------------------------------------------------7-|
|----------------------------------------------------| x2
|-5-4-3-2-1----5-4-3-2-1----5-4-3-2-1----5-4-3-2-----|

and thats it. please comment anmd rate :)

A.J
            
Hard to play? Try these video lessons and learn fast. | Correct




comments powered by Disqus
↑ Back to top | Tablatures and chords are parodies/interpretations of the original songs. You may use it for private study, scholarship, research or language learning purposes only