» » »

Omen Tabs (ver.1)

Artists:  A B C D E F G H I J K L M N O P Q R S T U V W X Y Z # 

Omen Tabs (ver.1)

Prodigy
Rating:
3/5 (5 votes)

Hard to play? Try these video lessons and learn fast.
                THIS IS A ROUGH LAYOUT OF THE SONG...CONSIDERING THERE ARE A LOT OF STRANGE 
NOISES AND EFFECTS, THIS IS WHAT I CAN MAKE OUT.


GUITAR 1 - INTRO

|-------18-19-18-19-18--|-------------------13-|-------18-19-18-19-18-|
|-----------------------|-15----14-15-14-15----|----------------------|
|-16--------------------|----------------------|-16-------------------|
|-----------------------|----------------------|----------------------|
|-----------------------|----------------------|----------------------|
|-----------------------|----------------------|----------------------|

|-------18-191918-19-|
|--------------------|
|-16-----------------|
|--------------------|
|--------------------|     
|--------------------|

GUITAR 1 - REPEAT INTRO

GUITAR 2 

|------------|------------|------------|------------|
|------------|------------|------------|------------|
|-4-4-4--4-4-|-4-4-4--4-4-|------------|------------|
|-4-4-4--4-4-|-4-4-4--4-4-|-5-5-5--5-5-|-7-7-7--7-7-|
|-2-2-2--2-2-|-2-2-2--2-2-|-5-5-5--5-5-|-7-7-7--7-7-|
|------------|------------|-3-3-3--3-5-|-5-5-5--5-5-|

|------------|------------|------------|------------|
|------------|------------|------------|------------|
|------------|------------|------------|------------|
|-2-2-2--2-2-|-2-2-2--2-2-|-5-5-5--5-5-|-7-7-7--7-7-|
|-2-2-2--2-2-|-2-2-2--2-2-|-5-5-5--5-5-|-7-7-7--7-7-|
|-0-0-0--0-0-|-0-0-0--0-0-|-3-3-3--3-5-|-5-5-5--5-5-|

LAST TIME BEFORE VERSEY BIT BOTH GUITARS

|-----------|
|-----------|
|-----------|
|-7-6-5-4-3-|
|-7-6-5-4-3-|
|-5-4-3-2-1-|

VERSE BIT

GUITAR 1

|----14------------14---------|
|-12----12-1514-12----12-1514-|
|-----------------------------|   X 6
|-----------------------------|
|-----------------------------|
|-----------------------------|

|-12-14-12------12-14-12-----|
|---------1312----------1312-|
|----------------------------|   X 2
|----------------------------|
|----------------------------|
|----------------------------|

|----14------------14---------|
|-12----12-1514-12----12-1514-|
|-----------------------------|   X 4
|-----------------------------|
|-----------------------------|
|-----------------------------|

CHORUS (SAME AS INTRO)

1ST BRIDGE BIT (BOTH GUITARS)

|------------|------------|-----------|
|------------|------------|-----------|
|-4~~~~~~~~~-|-4~~~~~~~~~-|-----------|
|-4~~~~~~~~~-|-4~~~~~~~~~-|-7-6-5-4-3-|   X 2
|-2~~~~~~~~~-|-2~~~~~~~~~-|-7-6-5-4-3-|
|------------|------------|-5-4-3-2-1-|

2ND BRIDGE BIT X 2 (GUITAR ONE)

|-14--14--14--14--1414--14--14--14-14-14--14--14--14--13--13----------13-|
|-------------------------------------------------------------15--15-----|
|------------------------------------------------------------------------|
|------------------------------------------------------------------------|
|------------------------------------------------------------------------|
|------------------------------------------------------------------------|

GUITAR TWO DO SAME POWER CHORDS AS IN CHORUS AND INTRO




THEYRE ALL THE 'RIFFS' COMMENTS WOULD BE COOL THIS IS MY FIRST TAB...APOLOGIES 
FOR ANY INCORRECT PARTS.
            
Hard to play? Try these video lessons and learn fast. | Correct




comments powered by Disqus
↑ Back to top | Tablatures and chords are parodies/interpretations of the original songs. You may use it for private study, scholarship, research or language learning purposes only