» » »

Prodigy, Breathe Tabs (ver.5)

Artists:  A B C D E F G H I J K L M N O P Q R S T U V W X Y Z # 

Breathe Tabs (ver.5)

Prodigy Tabs
 Rating:
4/5 (7 votes)
Breathe lessons Tabs too difficult? Try these video lessons and learn fast
                ----------------------------------------------------------------------------
                             Breathe - Prodigy
----------------------------------------------------------------------------

Tuning:Standard

This is a nice and simple tab which needs a little listening to to get the rhythm
but i've tried my best to indicate which notes are held longer than others.
Enjoy.
---------------------------------------------------------------------------

Intro: (Which repeats itself throughout the song)

e|--------------------------------------------|
B|--------------------------------------------|
G|--------------------------------------------|
D|--------------------------------------------|
A|--0--0--0--0--3--0--3--2--0--2--------------|
E|--------------------------------4--4--4--4--|


----------------------------------------------------------------------------

The bit where the lead singer says - "Breathe the pressure"
(The notes are held for longer each time here, except for between the 7,5 power chord 
the 6,4 power chord)

e|--------------------|
B|--------------------|
G|--------------------|
D|---------------8----|
A|--8----7--6----6----|
E|--6----5--4---------|


----------------------------------------------------------------------------

This is another part of the song which is insignificant but I thought I might as well 
it in.

e|-------------------------|
B|-------------------------|
G|-------------------------|
D|--8--8--8----7--7--6--6--|
A|--8--8--8----7--7--6--6--|
E|-------------------------|


----------------------------------------------------------------------------

Please rate
thanks
            
Submit corrections

comments powered by Disqus
↑ Back to top | Prodigy Tabs for Breathe. Lyrics for acoustic guitar and electric guitar. Tablatures and chords are parodies/interpretations of the original songs. You may use it for private study, scholarship, research or language learning purposes only