» » »

Black Smoke Bass tabs (ver.1)

Artists:  A B C D E F G H I J K L M N O P Q R S T U V W X Y Z # 

Black Smoke Bass tabs (ver.1)

Prodigy
Rating:
0/5 (0 votes)

Hard to play? Try these video lessons and learn fast.
                Track:  Black Smoke

Neat and simple groove,
as in the track you can combine/twist
with the two breaks.

h-hammer on
p-pull off

Main:
G --------------------|
D --------------------|
A ---3h4p3------------|
E -5--------4--4--4---|


Break (not 100% sure):
G -------------I--------------|
D -6--6--676---I--7--7--78----|  x2
A -------------I--------------|
E -------------I--------------|


Guitar/synth break:
G ----10-------10----12-----|
D -10----10-----------------|
A --------------------------|
E --------------------------|
            
Hard to play? Try these video lessons and learn fast. | Correct




comments powered by Disqus
↑ Back to top | Tablatures and chords are parodies/interpretations of the original songs. You may use it for private study, scholarship, research or language learning purposes only