» » »

Proclaimers, I Would Walk 500 Miles Tabs (ver.1)

Artists:  A B C D E F G H I J K L M N O P Q R S T U V W X Y Z # 

I Would Walk 500 Miles Tabs (ver.1)

Proclaimers Tabs
Rating:
2/5 (3 votes)
I Would Walk 500 Miles lessons Tabs too difficult? Try these video lessons and learn fast
                 I would walk 500 miles - The Proclaimers feat. Brian Potter and Andy Pipkin

Tuning:Standard

 Intro: PLAY TWICE
e|---------------------------------------------------------------------------|
B|---------------------------------------------------------------------------|
G|---------------------------------------------------------------------------|
D|2-2-2-2222-2-2-2-----------------------------------------------------------|
A|2-2-2-2222-2-2-2-----------------------------------------------------------|
E|0-0-0-0000-0-0-0-----------------------------------------------------------|

e|---------------------------------------------------------------------------|
B|---------------------------------------------------------------------------|
G|-----------------2--2--4--4----------------------------2--2--4--4----------|
D|2-2-2-2222-2-2-2-2--2--4--4--2-2-2-2222-2-2-2222-2-2-2-2--2--4--4--2-2-2-2-|
A|2-2-2-2222-2-2-2-0--0--2--2--2-2-2-2222-2-2-2222-2-2-2-0--0--2--2--2-2-2-2-|
E|0-0-0-0000-0-0-0-------------0-0-0-0000-0-0-0000-0-0-0-------------0-0-0-0-|
  wake up           be        you.       go out                   you.

e|---------------------------------------------------------------------------|
B|---------------------------------------------------------------------------|
G|-----------------2--2--4--4----------------------------2--2--4--4----------|
D|2-2-2-2222-2-2-2-2--2--4--4--2-2-2-2222-2-2-2222-2-2-2-2--2--4--4--2-2-2-2-|
A|2-2-2-2222-2-2-2-0--0--2--2--2-2-2-2222-2-2-2222-2-2-2-0--0--2--2--2-2-2-2-|
E|0-0-0-0000-0-0-0-------------0-0-0-0000-0-0-0000-0-0-0-------------0-0-0-0-|
  haver                       you.                                    you.

  Chorus: PLAY TWICE
e|----------------------------------|
B|----------------------------------|
G|-----------------2-2-2-2-4-4-4-4--|
D|2-2-2-2222-2-2-2-2-2-2-2-4-4-4-4--|
A|2-2-2-2222-2-2-2-0-0-0-0-2-2-2-2--|
E|0-0-0-0000-0-0-0------------------|

   Verse: PLAY 4 TIMES
e|---------------------------------------------------------------------------|
B|---------------------------------------------------------------------------|
G|-----------------2-2-4-4---------------------------------------------------|
D|2-2-2-2222-2-2-2-2-2-4-4-2-2-2-2-------------------------------------------|
A|2-2-2-2222-2-2-2-0-0-2-2-2-2-2-2-------------------------------------------|
E|0-0-0-0000-0-0-0---------0-0-0-0-------------------------------------------|

  Chorus: PLAY 2 TIMES
e|---------------------------------------------------------------------------|
B|---------------------------------------------------------------------------|
G|-----------------2-2-2-2-4-4-4-4-------------------------------------------|
D|2-2-2-2222-2-2-2-2-2-2-2-4-4-4-4-------------------------------------------|
A|2-2-2-2222-2-2-2-0-0-0-0-2-2-2-2-------------------------------------------|
E|0-0-0-0000-0-0-0-----------------------------------------------------------|

 Verse: PLAY 2 TIMES
e|---------------------------------------------------------------------------|
B|---------------------------------------------------------------------------|
G|-----------------2-2-4-4---------------------------------------------------|
D|2-2-2-2222-2-2-2-2-2-4-4-2-2-2-2-------------------------------------------|
A|2-2-2-2222-2-2-2-0-0-2-2-2-2-2-2-------------------------------------------|
E|0-0-0-0000-0-0-0---------0-0-0-0-------------------------------------------|

 Enter the Proclaimers: PLAY 2 TIMES
e|---------------------------------------------------------------------------|
B|---------------------------------------------------------------------------|
G|---------------------------------------------------------------------------|
D|2-2-2-2222-2-2-2-----------------------------------------------------------|
A|2-2-2-2222-2-2-2-----------------------------------------------------------|
E|0-0-0-0000-0-0-0-----------------------------------------------------------|

 Verse: PLAY 3 TIMES
e|---------------------------------------------------------------------------------|
B|---------------------------------------------------------------------------------|
G|-----------------2-2-4-4---------------------------------------------------------|
D|2-2-2-2222-2-2-2-2-2-4-4-2-2-2-2-------------------------------------------------|
A|2-2-2-2222-2-2-2-0-0-2-2-2-2-2-2-------------------------------------------------|
E|0-0-0-0000-0-0-0---------0-0-0-0-------------------------------------------------|

e|---------------------------------------------------------------------------|
B|---------------------------------------------------------------------------|
G|-----------------2-2-4-4-6-6-6-6-2----4------------------------------------|
D|2-2-2-2222-2-2-2-2-2-4-4-6-6-6-6-2----4----2-2-2-2222-2-2-2----------------|
A|2-2-2-2222-2-2-2-0-0-2-2-4-4-4-4-0----2----2-2-2-2222-2-2-2----------------|
E|0-0-0-0000-0-0-0---------------------------0-0-0-0000-0-0-0----------------|
  come home                you.   be         you.

 Chorus:PLAY 2 TIMES
e|---------------------------------------------------------------------------|
B|---------------------------------------------------------------------------|
G|-----------------2-2-2-2-4-4-4-4-------------------------------------------|
D|2-2-2-2222-2-2-2-2-2-2-2-4-4-4-4-------------------------------------------|
A|2-2-2-2222-2-2-2-0-0-0-0-2-2-2-2-------------------------------------------|
E|0-0-0-0000-0-0-0-----------------------------------------------------------|

 Verse: PLAY 4 TIMES
e|---------------------------------------------------------------------------|
B|---------------------------------------------------------------------------|
G|-----------------2-2-4-4---------------------------------------------------|
D|2-2-2-2222-2-2-2-2-2-4-4-2-2-2-2-------------------------------------------|
A|2-2-2-2222-2-2-2-0-0-2-2-2-2-2-2-------------------------------------------|
E|0-0-0-0000-0-0-0---------0-0-0-0-------------------------------------------|

 Chorus
e|---------------------------------------------------------------------------|
B|---------------------------------------------------------------------------|
G|-----------------2-2-2-2-4-4-4-4------------------2-2-4-4------------------|
D|2-2-2-2222-2-2-2-2-2-2-2-4-4-4-4-2-2-2-2222-2-2-2-2-2-4-4-2----------------|
A|2-2-2-2222-2-2-2-0-0-0-0-2-2-2-2-2-2-2-2222-2-2-2-0-0-2-2-2----------------|
E|0-0-0-0000-0-0-0-----------------0-0-0-0000-0-0-0---------0----------------|
  I would                          I would

| /  slide up
| \  slide down
| h  hammer-on
| p  pull-off
| ~  vibrato
| +  harmonic
| x  Mute note
            
Submit corrections

comments powered by Disqus
↑ Back to top | Proclaimers Tabs for I Would Walk 500 Miles. Lyrics for acoustic guitar and electric guitar. Tablatures and chords are parodies/interpretations of the original songs. You may use it for private study, scholarship, research or language learning purposes only