» » »

Silent Spring Tabs (ver.1)

Artists:  A B C D E F G H I J K L M N O P Q R S T U V W X Y Z # 

Silent Spring Tabs (ver.1)

Probot
Rating:
0/5 (0 votes)

Hard to play? Try these video lessons and learn fast.
                -------------------------------------------------------------------------------
-------------------------------------------------------------------------------

Tuning:D

e|---------------------------------------------------------------------------|
B|---------------------------------------------------------------------------|
G|---------------------------------------------------------------------------|
D|---------------------------------------------------------------------------|
A|---------------------------------------------------------------------------|
E|--2-0-0-0-0-0--2-0-0-0-0-0--2-0-0-0-0-0--2-0-0-+4--------------------------|

e|---------------------------------------------------------------------------|
B|---------------------------------------------------------------------------|
G|---------------------------------------------------------------------------|
D|-5-5-5----------------------3-3-3------------------------------------------|
A|-3-3-3--3-3-5---------------1-1-1--3-3-5---------------3-3-3--3-3----------|
E|--------1-1-3--2-0-0-0-0-0---------1-1-3--2-0-0-0-0-0---------1-1-3--------|

e|---------------------------------------------------------------------------|
B|---------------------------------------------------------------------------|
G|---------------------------------------------------------------------------|
D|-3-----5-4-3---------------------------------------------------------------|
A|-1-3-5-3-2-1---------------------------------------------------------------|
E|---1-3-------2-0-0-0-0-0--2-0-0-0-0--2-0-0-0-0-0--2-0-0-+4-----------------|

e|---------------------------------------------------------------------------|
B|---------------------------------------------------------------------------|
G|---------------------------------------------------------------------------|
D|---------------------------------------------------------------------------|
A|-2-3-5--/17--2-3-5--/17--2-3-5--/17--2-3-5-7-------------------------------|
E|-0-1-3--/17--0-1-3--/17--0-1-3--/17--0-1-3-5-------------------------------|




| /  slide up
| \  slide down
| h  hammer-on
| p  pull-off
| ~  vibrato
| +  harmonic
| x  Mute note
===============================================================================
            
Hard to play? Try these video lessons and learn fast. | Correct




comments powered by Disqus
↑ Back to top | Tablatures and chords are parodies/interpretations of the original songs. You may use it for private study, scholarship, research or language learning purposes only