>
 >
Ice Cold Man

Ice Cold Man Guitar Tabs

Probot - Ice Cold Man chords, tabs, tablatures, lyrics

Guitar lessons | Add/correct | Request | Top 50 tabs Artists:  A B C D E F G H I J K L M N O P Q R S T U V W X Y Z 0-9

Ice Cold Man Guitar Tabs – Probot

CD, Sheet music, Poster

Do you like Ice Cold Man? Share with your friends now
Tabs
.  - palm mute           /  - slide up to
\  - slide down to       ~  - vibrato
h  - hammer on           b  - Bend
p  - pull off            Suffixes for bend
t  - tap                 f  - full bend    h - half bend
ph - pinched harmonic    q  - quarter bend t - tap bend
*  - see comment         ^  - Hold bend    r release bend
x  - Stuccatto           ~  - vibrato bend
,  - slight palm mute    () - ghost note, sustained note
"  - tremolo note        <> - Trill

Tunning D A D G B E

INTRO
guitar 1
|----------------------------------|
|----------------------------------|
|----------------------------------|
|----------------------------------|
|----6-----------------------------|
|-5-----7~---6~\---2---5---0-------|

guitar 1
|------------------------------------|
|------------------------------------|
|------------------------------------|
|------------------------------------|
|---6--------------------------5b--2-|
|-5---7~--6~\---2---5---0---5--------|
|
|
guitar 2
|------------------------------------|
|---15-------------------------11b-8-|
|-12--16~-15~\--11--14--9---11-------|
|------------------------------------|
|------------------------------------|
|------------------------------------|

FILL 1
guitar 1
|---------------------------|
|---------------------------|
|---------------------------|
|-7-7-7-7-5-5-5-5-4-4-4-4-2-|
|-5-5-5-5-3-3-3-3-2-2-2-2-0-|
|---------------------------|

VERSE
guitar 1
|------------------------------------|
|------------------------------------|
|------------------------------------|
|------------------------------------|
|---6--------------------------------|
|-5---7~--6~\---2---5-------5-h7p5--\|
|
|
guitar 2
|------------------------------------|
|---15-------------------------------|
|-12--16~-15~\--11--14------11h13p11-|
|------------------------------------|
|------------------------------------|
|------------------------------------|

PRECHORUS
guitar 1
|-------------|-------------|-------------|----------------|
|-------------|-------------|-------------|----------------|
|-------------|-------------|-------------|----------------|
|-------------|-------------|-------------|----------------|
|-------------|-------------|-------------|----------------|
|-2--2/5---7--|--2--2/5---6-|--2--2/5---7-|--2--2/5---6----|
|
|
guitar 2
|-------------|-------------|-------------|----------------|
|-------------|-------------|-------------|----------------|
|-11-11/14-16-|-11-11/14-15-|-11-11/14-16-|-16-14b----11---|
|-------------|-------------|-------------|----------------|
|-------------|-------------|-------------|----------------|
|-------------|-------------|-------------|----------------|

CHORUS
guitar 1
|---------------------------|-------------------------------|
|---------------------------|-------------------------------|
|---------------------------|-------------------------------|
|-7-7-7-7-5-5-5-5-4-4-4-4-2-|-7--11-5--11-3--11--5----------|
|-5-5-5-5-3-3-3-3-2-2-2-2-0-|-5--9--3--9--1--9---3--3h4p3p0-|
|---------------------------|-------------------------------|

|---------------------------|
|---------------------------|
|---------------------------|
|-7-7-7-7-5-5-5-5-4-4-4-4-2-|
|-5-5-5-5-3-3-3-3-2-2-2-2-0-|
|---------------------------|
on one of the last choruses the second guitar is doing a
bunch of pick scrapes and slides


VERSE 2
guitar 1
|-------------------------------------|
|-------------------------------------|
|-------------------------------------|
|-------------------------------------|
|---6---------------------------------|
|-5---7^~--6~\---2---5-------5-h7p5--\|
|
|
guitar 2
|-------------------------------------|
|---15--------------------------------|
|-12--16^~-15~\--11--14------11h13p11-|
|-------------------------------------|
|-------------------------------------|
|-------------------------------------|

BRIDGE
guitar 1
|---------------|----------------|---------------|----------------|
|---------------|----------------|---------------|----------------|
|---------------|----------------|---------------|----------------|
|-----6-----6-6-|----------------|-----6-----6-6-|----------------|
|-0-0-4-0-0-4-4-|-2--2h3p2-0-0-4-|-0-0-4-0-0-4-4-|-1--1h2p1-0-0---|
|---------------|----------------|---------------|--------------4-|
  . .   . .                . .     . .   . .                . .

guitar 2
|-15p12-15p12-15p12-15p12-15p12-15p12-12^-|
|-----------------------------------------|
|-----------------------------------------| this part doesnt kick in for a while
|-----------------------------------------|
|-----------------------------------------|
|-----------------------------------------|

||:---------------------------:||------------------------------|
||:---------------------------:||------------------------------|
||:---------------------------:||------------------------------|
||:---------------------------:||------------------------------|
||:---6--3-3-3--4^-3-3-4^-3-3-:||---6--3-3-3--4^-3-3-3~~-------|
||:-4-------------------------:||-4----------------------------|

|---------|
|---------|
|---------|
|---------|
|--4---3--|
|---------|





Comments


Popular Probot tabs & chords
My Tortured Soul Bass Tabs
Shake Your Blood Bass Tabs
Shake Your Blood 1 Bass Tabs
Big Sky Tabs
Centuries Of Sin Tabs
Centuries Of Sin 1 Tabs
Centuries Of Sin 2 Tabs
Emerald Law Tabs
My Tortured Soul Live Tabs
Silent Spring Tabs


Song lyrics



↑ Back to top | Tablatures and chords are parodies/interpretations of the original songs. You may use it for private study, scholarship, research or language learning purposes only
© 2014 AZChords.com Contact us | Privacy policy | DMCA | Add/correct tabs | Request tabs | Top 50 tabs