» » »

I Am The Warlock Tabs (ver.1)

Artists:  A B C D E F G H I J K L M N O P Q R S T U V W X Y Z # 

I Am The Warlock Tabs (ver.1)

Probot
Rating:
5/5 (1 vote)

Hard to play? Try these video lessons and learn fast.
                this is the hidden track at the end of the album, which features Jack Black.
it is tuned a full step down with a drop C. now enjoy!

intro
D-----------------|
A--------------3--|
F--------------2--|  let that ring over the bass playin the main riff
C--------------0--|
G-----5---3----0--|
C--/6---5---3--0--|

main riff
D----------------------------------------------------|
A----------------------------------------------------|
F----------------------------------------------------|
C----------------------------------------------------| 2x...
G-----5---3--------5-3----3h5----3h5---------5-3-----|
C--/6---5---3--3h5-----00-----00-----00--3h5-----00--|

verse                                            4x   on the 4th end on this
D----------------------------------------------------I--------------|
A----------------------------------------------------I--------------|
F----------------------------------------------------I--------------|
C----------------------------------------------------I--------------|
G-----5---3--------5-3----3h5----3h5---------5-3-----I-----5---3----|
C--/6---5---3--3h5-----00-----00-----00--3h5-----00--I--/6---5---3--|

pre-chorus
D----------------|
A----------------|
F--5s6-666--555--|
C----------------| 11x
G--3s5-555--333--|
C----------------|

Chorus
D----------------------------------------------------|
A----------------------------------------------------|
F----------------------------------------------------|
C----------------------------------------------------| 2x...
G-----5---3--------5-3----3h5----3h5---------5-3-----|
C--/6---5---3--3h5-----00-----00-----00--3h5-----00--|


verse                                            4x   on the 4th end on this
D----------------------------------------------------I--------------|
A----------------------------------------------------I--------------|
F----------------------------------------------------I--------------|
C----------------------------------------------------I--------------|
G-----5---3--------5-3----3h5----3h5---------5-3-----I-----5---3----|
C--/6---5---3--3h5-----00-----00-----00--3h5-----00--I--/6---5---3--|


pre-chorus
D--------------------|
A--------------------|
F--5s6-6-6-6--5-5-5--|
C--------------------| 11x
G--3s5-5-5-5--3-3-3--|
C--------------------|

Bridge                              3x then
D------------------------------------------I-----------------------|
A------------------------------------------I-----------------------|
F-10-10-10-10-10-12-12-12-9-9-9-9-9-7-7-7--I-10-10-10-10-10s12-12--|
C------------------------------------------I-----------------------|
G--8--8--8--8--8s10-10-10-7-7-7-7-7s5-5-5--I--8--8--8--8--8s10-10--|
C------------------------------------------I-----------------------|

Outro                                            4x   on the 4th end on this
D----------------------------------------------------I------------------|
A----------------------------------------------------I------------------|
F----------------------------------------------------I------------------|
C----------------------------------------------------I--------------0---|
G-----5---3--------5-3----3h5----3h5---------5-3-----I-----5---3----0---|
C--/6---5---3--3h5-----00-----00-----00--3h5-----00--I--/6---5---3--0---|
            
Hard to play? Try these video lessons and learn fast. | Correct




comments powered by Disqus
↑ Back to top | Tablatures and chords are parodies/interpretations of the original songs. You may use it for private study, scholarship, research or language learning purposes only