» » »

Probot, Big Sky Tabs (ver.1)

Artists:  A B C D E F G H I J K L M N O P Q R S T U V W X Y Z # 

Big Sky Tabs (ver.1)

Probot Tabs
Rating:
4/5 (3 votes)
Big Sky lessons Tabs too difficult? Try these video lessons and learn fast
                Tuning:   Drop C - CGCFAd


This is a wicked song, so heavy and pretty simple once you get the little lick right.
I’m not sure it’s completely correct but due to the lack of Probot tabs it’s worth a


Intro:

      First two bars are just bass, then guitar comes in with drums.


d||----------------------------------------------------------------|----------------------------------------------------------------||
A||----------------------------------------------------------------|----------------------------------------------------------------||
F||----------------------------------------------------------------|----------------------------------------------------------------||
C||-0-0-----0-0-----0-0-----0-0-----0-0-----0-0-----0-0-----0-0----|-0-0-----0-0-----0-0-----0-0-----0-0-----0-0-----0-0-----0-0----||
G||-0-0-----0-0-----0-0-----0-0-----0-0-----0-0-----0-0-----0-0----|-0-0-----0-0-----0-0-----0-0-----0-0-----0-0-----0-0-----0-0----||
C||-0-0-----0-0-----0-0-----0-0-----0-0-----0-0-----0-0-----0-0----|-0-0-----0-0-----0-0-----0-0-----0-0-----0-0-----0-0-----0-0----||


Verse 1:


d||----------------------------------------------------------------|----------------------------------------------------------------||
A||----------------------------------------------------------------|----------------------------------------------------------------||
F||----------------------------------------------------------------|----------------------------------------------------------------||
C||-0-0-----0-0-----0-0-----0-0-----0-0-----0-0-----0-0-----0-0----|-0-0-----0-0-----0-0-----0-0-----0-0-----0-0-----0-0-----0------||
G||-0-0-----0-0-----0-0-----0-0-----0-0-----0-0-----0-0-----0-0----|-0-0-----0-0-----0-0-----0-0-----0-0-----0-0-----0-0-----0-----1||
C||-0-0-----0-0-----0-0-----0-0-----0-0-----0-0-----0-0-----0-0----|-0-0-----0-0-----0-0-----0-0-----0-0-----0-0-----0-0-----0-0-3--||


d||----------------------------------------------------------------|----------------------------------------------------------------||
A||----------------------------------------------------------------|----------------------------------------------------------------||
F||----------------------------------------------------------------|----------------------------------------------------------------||
C||---0-0---0-0-----0-0-----0---------0-0---0-0-----0-0-----0------|---3-3---3-3-----3-3-----3---------0-0---0-0-----0-0-----0------||
G||-3-0-0---0-0-----0-0-----0-----1-3-0-0---0-0-----0-0-----0-----3|-5-3-3---3-3-----3-3-----3-----1-3-0-0---0-0-----0-0-----0-----1||
C||---------0-0-----0-0-----0-0-3-----------0-0-----0-0-----0-0-5--|---------3-3-----3-3-----3-0-3-----------0-0-----0-0-----0-0-3--||


d||----------------------------------------------------------------|----------------------------------------------------------------||
A||----------------------------------------------------------------|----------------------------------------------------------------||
F||----------------------------------------------------------------|----------------------------------------------------------------||
C||---0-0---0-0-----0-0-----0---------0-0---0-0-----0-0-----0------|---3-3---3-3-----3-3-----3---------0-0---0-0-----0-0-----0------||
G||-3-0-0---0-0-----0-0-----0-----1-3-0-0---0-0-----0-0-----0-----3|-5-3-3---3-3-----3-3-----3-----1-3-0-0---0-0-----0-0-----0-----1||
C||---------0-0-----0-0-----0-0-3-----------0-0-----0-0-----0-0-5--|---------3-3-----3-3-----3-0-3-----------0-0-----0-0-----0-0-3--||


Chorus:


d||----------------------------------------------------------------|----------------------------------------------------------------||
A||----------------------------------------------------------------|----------------------------------------------------------------||
F||---5-5-5-5-5-5-----7-7-7-7-7-7-----5-5-5-5-5-5-----7-7-7-7-7-7--|-3-3-3-3-3-3-3---7-7-7-7-7-7-7---3-3-3-3-3-3-3------------------||
C||---5-5-5-5-5-5-----7-7-7-7-7-7-----5-5-5-5-5-5-----7-7-7-7-7-7--|-3-3-3-3-3-3-3---7-7-7-7-7-7-7---3-3-3-3-3-3-3-----6-6-6-6-5-3--||
G||-3-3-3-3-3-3-3-3-5-5-5-5-5-5-5-1-3-3-3-3-3-3-3-3-5-5-5-5-5-5-5-3|-1-1-1-1-1-1-1-3-5-5-5-5-5-5-5-3-1-1-1-1-1-1-1-----6-6-6-6-5-3--||
C||----------------------------------------------------------------|---------------------------------------------------6-6-6-6-5-3--||


Verse 2:


d||----------------------------------------------------------------|----------------------------------------------------------------||
A||----------------------------------------------------------------|----------------------------------------------------------------||
F||----------------------------------------------------------------|----------------------------------------------------------------||
C||-0-0-----0-0-----0-0-----0---------0-0---0-0-----0-0-----0------|---0-0---0-0-----0-0-----0---------0-0---0-0-----0-0-----0------||
G||-0-0-----0-0-----0-0-----0-----1-3-0-0---0-0-----0-0-----0-----1|-3-0-0---0-0-----0-0-----0-----1-3-0-0---0-0-----0-0-----0-----1||
C||-0-0-----0-0-----0-0-----0-0-3-----------0-0-----0-0-----0-0-3--|---------0-0-----0-0-----0-0-3-----------0-0-----0-0-----0-0-3--||


d||----------------------------------------------------------------|----------------------------------------------------------------||
A||----------------------------------------------------------------|----------------------------------------------------------------||
F||----------------------------------------------------------------|----------------------------------------------------------------||
C||---0-0---0-0-----0-0-----0---------0-0---0-0-----0-0-----0------|---3-3---3-3-----3-3-----3---------0-0---0-0-----0-0-----0------||
G||-3-0-0---0-0-----0-0-----0-----1-3-0-0---0-0-----0-0-----0-----3|-5-3-3---3-3-----3-3-----3-----1-3-0-0---0-0-----0-0-----0-----1||
C||---------0-0-----0-0-----0-0-3-----------0-0-----0-0-----0-0-5--|---------3-3-----3-3-----3-0-3-----------0-0-----0-0-----0-0-3--||


d||----------------------------------------------------------------|----------------------------------------------------------------||
A||----------------------------------------------------------------|----------------------------------------------------------------||
F||----------------------------------------------------------------|----------------------------------------------------------------||
C||---0-0---0-0-----0-0-----0---------0-0---0-0-----0-0-----0------|---3-3---3-3-----3-3-----3---------0-0---0-0-----0-0-----0------||
G||-3-0-0---0-0-----0-0-----0-----1-3-0-0---0-0-----0-0-----0-----3|-5-3-3---3-3-----3-3-----3-----1-3-0-0---0-0-----0-0-----0-----1||
C||---------0-0-----0-0-----0-0-3-----------0-0-----0-0-----0-0-5--|---------3-3-----3-3-----3-0-3-----------0-0-----0-0-----0-0-3--||


Repeat Chorus Riff

then

d||----------------------------------------------------------------|----------------------------------------------------------------||
A||----------------------------------------------------------------|----------------------------------------------------------------||
F||----------------------------------------------------------------|----------------------------------------------------------------||
C||-0-0-----0-0-----0-0-----0---------0-0---0-0-----0-0-----0------|---0-0---0-0-----0-0-----0---------0-0---0-0-----0-0-----0------||
G||-0-0-----0-0-----0-0-----0-----1-3-0-0---0-0-----0-0-----0-----1|-3-0-0---0-0-----0-0-----0-----1-3-0-0---0-0-----0-0-----0-----1||
C||-0-0-----0-0-----0-0-----0-0-3-----------0-0-----0-0-----0-0-3--|---------0-0-----0-0-----0-0-3-----------0-0-----0-0-----0-0-3--||



d||----------------------------------------------------------------|----------------------------------------------------------------||
A||----------------------------------------------------------------|----------------------------------------------------------------||
F||----------------------------------------------------------------|----------------------------------------------------------------||
C||----------------------------------------------------------------|---0-0---0-0-----0-0-----0---------0-0---0-0-----0-0-----0------||
G||-3-------------------------------------------------------------1|-3-0-0---0-0-----0-0-----0-----1-3-0-0---0-0-----0-0-----0-----1||
C||-------------------------------------------------------------3--|---------0-0-----0-0-----0-0-3-----------0-0-----0-0-----0-0-3--||


d||----------------------------------------------------------------|----------------------------------------------------------------||
A||----------------------------------------------------------------|----------------------------------------------------------------||
F||----------------------------------------------------------------|----------------------------------------------------------------||
C||---0-0---0-0-----0-0-----0---------0-0---0-0-----0-0-----0------|---3-3---3-3-----3-3-----3---------0-0---0-0-----0-0-----0------||
G||-3-0-0---0-0-----0-0-----0-----1-3-0-0---0-0-----0-0-----0-----3|-5-3-3---3-3-----3-3-----3-----1-3-0-0---0-0-----0-0-----0-----1||
C||---------0-0-----0-0-----0-0-3-----------0-0-----0-0-----0-0-5--|---------3-3-----3-3-----3-0-3-----------0-0-----0-0-----0-0-3--||


d||----------------------------------------------------------------|----------------------------------------------------------------||
A||----------------------------------------------------------------|----------------------------------------------------------------||
F||----------------------------------------------------------------|----------------------------------------------------------------||
C||---0-0---0-0-----0-0-----0---------0-0---0-0-----0-0-----0------|---3-3---3-3-----3-3-----3---------0-0---0-0-----0-0-----0------||
G||-3-0-0---0-0-----0-0-----0-----1-3-0-0---0-0-----0-0-----0-----3|-5-3-3---3-3-----3-3-----3-----1-3-0-0---0-0-----0-0-----0-----1||
C||---------0-0-----0-0-----0-0-3-----------0-0-----0-0-----0-0-5--|---------3-3-----3-3-----3-0-3-----------0-0-----0-0-----0-0-3--||


Repeat Chorus Riff twice

Outro:


d||---------------------------------------------x-x-----x-x--------|-------------x-x-----x-x---------------------x-x-----x-x--------||
A||---------------------------------------------x-x-----x-x--------|-------------x-x-----x-x---------------------x-x-----x-x--------||
F||---------------------------------------------x-x-----x-x--------|-------------x-x-----x-x---------------------x-x-----x-x--------||
C||-0-0-----0-0-----0-0-----0---------0-0---0-0-x-x-0-0-x-x-0------|---0-0---0-0-x-x-0-0-x-x-0---------0-0---0-0-x-x-0-0-x-x-0------||
G||-0-0-----0-0-----0-0-----0-----1-3-0-0---0-0-x-x-0-0-x-x-0-----1|-3-0-0---0-0-x-x-0-0-x-x-0-----1-3-0-0---0-0-x-x-0-0-x-x-0-----1||
C||-0-0-----0-0-----0-0-----0-0-3-----------0-0-x-x-0-0-x-x-0-0-3--|---------0-0-x-x-0-0-x-x-0-0-3-----------0-0-x-x-0-0-x-x-0-0-3--||


d||-------------x-x-----x-x---------------------x-x-----x-x--------|-------------x-x-----x-x---------------------x-x-----x-x-----x-x||
A||-------------x-x-----x-x---------------------x-x-----x-x--------|-------------x-x-----x-x---------------------x-x-----x-x-----x-x||
F||-------------x-x-----x-x---------------------x-x-----x-x--------|-------------x-x-----x-x---------------------x-x-----x-x-----x-x||
C||---0-0---0-0-x-x-0-0-x-x-0---------0-0---0-0-x-x-0-0-x-x-0------|---0-0---0-0-x-x-0-0-x-x-0---------0-0---0-0-x-x-0-0-x-x-0-0-x-x||
G||-3-0-0---0-0-x-x-0-0-x-x-0-----1-3-0-0---0-0-x-x-0-0-x-x-0-----1|-3-0-0---0-0-x-x-0-0-x-x-0-----1-3-0-0---0-0-x-x-0-0-x-x-0-0-x-x||
C||---------0-0-x-x-0-0-x-x-0-0-3-----------0-0-x-x-0-0-x-x-0-0-3--|---------0-0-x-x-0-0-x-x-0-0-3-----------0-0-x-x-0-0-x-x-0-0-x-x||


d||-----x-x-----x-x-----x-x-----x-x-----x-x-----x-x-----x-x-----x--||
A||-----x-x-----x-x-----x-x-----x-x-----x-x-----x-x-----x-x-----x--||
F||-----x-x-----x-x-----x-x-----x-x-----x-x-----x-x-----x-x-----x--||
C||-0-0-x-x-0-0-x-x-0-0-x-x-0-0-x-x-0-0-x-x-0-0-x-x-0-0-x-x-0-0-x--||
G||-0-0-x-x-0-0-x-x-0-0-x-x-0-0-x-x-0-0-x-x-0-0-x-x-0-0-x-x-0-0-x--||
C||-0-0-x-x-0-0-x-x-0-0-x-x-0-0-x-x-0-0-x-x-0-0-x-x-0-0-x-x-0-0-x--||
            

comments powered by Disqus
↑ Back to top | Probot Tabs for Big Sky. Lyrics for acoustic guitar and electric guitar. Tablatures and chords are parodies/interpretations of the original songs. You may use it for private study, scholarship, research or language learning purposes only