» » »

Prljavo Kazaliste, Mi Plesemo Tabs (ver.1)

Artists:  A B C D E F G H I J K L M N O P Q R S T U V W X Y Z # 

Mi Plesemo Tabs (ver.1)

Prljavo Kazaliste Tabs
Rating:
5/5 (1 vote)
Hard to play? Try these video lessons and learn fast.
                PRLJAVO KAZALISTE
----------------- 
MI PLESEMO

1. GITARA 
-----------------
-----------------

INTRO
-----

RIFF 1
    D         G         A         D       G         A
e|--5-5----5--3-3----3--5-5----5--5----5--3-3----3--5-5--|
B|--7-7----7--3-3----3--5-5----5--7----7--3-3----3--5-5--|
D|--7-7----7--4-4----4--6-6----6--7----7--4-4----4--6-6--|
G|--7-7----7--5-5----5--7-7----7--7----7--5-5----5--7-7--|
A|--5-5----5--5-5----5--7-7----7--5----5--5-5----5--7-7--|
E|------------3-3----3--5-5----5----------3-3----3--5-5--|

SOLO 1
e|--7-5-4--7-5-4--4-5---9-7-6--9-7--6-7-7-7--6-7--|
B|------------------------------------------------|
D|------------------------------------------------|
G|------------------------------------------------|
A|------------------------------------------------|
E|------------------------------------------------|

e|--7-5-4--7-5-4--4-5---9-7-6--9-7-6--|
B|------------------------------------|
D|------------------------------------|
G|------------------------------------|
A|------------------------------------|
E|------------------------------------|

RIFF 2
    D    Dsus            G              A
e|--2-2--3-3--2-2--3-2-------------------(5)(5)(5)(5)--|
B|--3-3--3-3--3-3--3-3--------------------5--5--5--5---|
D|--2-2--2-2--2-2--2-2---4-4--4--4-4----6-6--6--6--6---|
G|-----------------------5-5--5--5-5----7-7--7--7--7---|
A|-----------------------5-5--5--5-5----7--------------|
E|-----------------------------------------------------|
    La, la, la...  


STROFA (00:32)
--------------

    D    Dsus            G              A  
e|--2-2--3-3--2-2--3-2-------------------(5)(5)(5)(5)--|
B|--3-3--3-3--3-3--3-3--------------------5--5--5--5---|
D|--2-2--2-2--2-2--2-2---4-4--4--4-4----6-6--6--6--6---|
G|-----------------------5-5--5--5-5----7-7--7--7--7---|
A|-----------------------5-5--5--5-5----7--------------|
E|-----------------------------------------------------|
    I zato sto sam tako mlad, sto sam tako mlad

    D    Dsus            G              A  
e|--2-2--3-3--2-2--3-2-------------------(5)(5)(5)(5)--|
B|--3-3--3-3--3-3--3-3--------------------5--5--5--5---|
D|--2-2--2-2--2-2--2-2---4-4--4--4-4----6-6--6--6--6---|
G|-----------------------5-5--5--5-5----7-7--7--7--7---|
A|-----------------------5-5--5--5-5----7--------------|
E|-----------------------------------------------------|
    I zato sto ne mogu s tobom drugacije

    D    Dsus               G           A  
e|--2-2--3-3--2-2--3-2-------------------(5)(5)(5)(5)--|
B|--3-3--3-3--3-3--3-3--------------------5--5--5--5---|
D|--2-2--2-2--2-3--2-2---4-4--4--4-4----6-6--6--6--6---|
G|-----------------------5-5--5--5-5----7-7--7--7--7---|
A|-----------------------5-5--5--5-5----7--------------|
E|-----------------------------------------------------|
    I zato sto nemamo kamo, sto nemamo

    D    Dsus            G             A            
e|--2-2--3-3--2-2--3-2---3-3--3--3-3---5-5--5--5-5-----|
B|--3-3--3-3--3-3--3-3---3-3--3--3-3---5-5--5--5-5-----|
D|--2-2--2-2--2-2--2-2---4-4--4--4-4---6-6--6--6-6-----|
G|-----------------------5-5--5--5-5---7-7--7--7-7-----|
A|-----------------------5-5--5--5-5---7-7--7--7-7-----|
E|-----------------------------------------------------|
    I zato sto nemamo love za skupe provode 


REFREN (00:51)

    D    Dsus            G              A  
e|--2-2--3-3--2-2--3-2-------------------(5)(5)(5)(5)--|
B|--3-3--3-3--3-3--3-3--------------------5--5--5--5---|
D|--2-2--2-2--2-2--2-2---4-4--4--4-4----6-6--6--6--6---|
G|-----------------------5-5--5--5-5----7-7--7--7--7---|
A|-----------------------5-5--5--5-5----7--------------|
E|-----------------------------------------------------|

    Mi plešemo cijeli dan i noc


SOLO 1 (01:11)

RIFF 2 (01:21)

STROFA (01:31)

REFREN (01:50)

SOLO 1 (02:01)

SOLO 2 (02:10)
e|----------------------------|----------------------------|
B|-----------6fb-6---6fb-6----|-----------6fb-6---6fb-6----|
D|--6--6h7-9-------8-------6--|--6--6h7-9-------8-------6--|
G|----------------------------|----------------------------|
A|----------------------------|----------------------------|
E|----------------------------|----------------------------|

e|-----------------------------------------------|
B|-----------------------------------------------|
D|--6-4-3-4--6-4-----------4hb-4hb---4hb-3-------|
G|---------------4--3h4-6----------6-------4-----|
A|-----------------------------------------------|
E|-----------------------------------------------|

e|-----------------------------------------------|
B|-----------------------------------------------|
D|--6--6-4-3-4--6-4-----------4hb-4hb---4hb-3----|
G|------------------4--3h4-6----------6----------|
A|-----------------------------------------------|
E|-----------------------------------------------|

e|-----------------------------8-6-5-6--8-6------|
B|--6--6-8fb-8-6---8fb-8-6--6---------------6----|
D|-----------------------------------------------|
G|-----------------------------------------------|
A|-----------------------------------------------|
E|-----------------------------------------------|

e|--------------------------8-6-5-6-8------------|
B|--6-8hb-8-6---8hb-8-6--6-----------------------|
D|-----------------------------------------------|
G|-----------------------------------------------|
A|-----------------------------------------------|
E|-----------------------------------------------|

e|-----------------------------------------------|
B|-----------------------------------------------|
D|--6-4-3-4--6-4-----------4hb-4hb---4hb-3-------|
G|---------------4--3h4-6----------6-------4-----|
A|-----------------------------------------------|
E|-----------------------------------------------|

e|-----------------------------------------------|
B|-----------------------------------------------|
D|--6--6-4-3-4--6-4-----------4hb-4hb---4hb-3----|
G|------------------4--3h4-6----------6----------|
A|-----------------------------------------------|
E|-----------------------------------------------|

e|--7-5-4--7-5-4--4-5---9-7-6--9-7-6--6-7--------|
B|-----------------------------------------------|
D|-----------------------------------------------|
G|-----------------------------------------------|
A|-----------------------------------------------|
E|-----------------------------------------------|

e|--7-5-4--7-5-4--4-5---9-7-6--9-7-6-------------|
B|-----------------------------------------------|
D|-----------------------------------------------|
G|-----------------------------------------------|
A|-----------------------------------------------|
E|-----------------------------------------------|


RIFF 2 (03:00)

    D    Dsus            G   A
e|--2-2--3-3--2-2--3-2---3---5--2-2-2-2-2-2-2-2-2-2--|
B|--3-3--3-3--3-3--3-3---3---5--3-3-3-3-3-3-3-3-3-3--|
D|--2-2--2-2--2-2--2-2---4---6--2-2-2-2-2-2-2-2-2-2--|
G|-----------------------5---7-----------------------|
A|-----------------------5---7-----------------------|
E|---------------------------------------------------|


RIFF 1 (03:27)

SOLO 3 (03:46) 4x 
e|-----------------------------------------------|
B|-----------------------------------------------|
D|--6-4-3-4--6-4-----------4hb-4hb---4hb-3-------|
G|---------------4--3h4-6----------6-------4-----|
A|-----------------------------------------------|
E|-----------------------------------------------|

RIFF 2 (04:10)

KRAJ


2. GITARA 
-----------------
-----------------
nisam siguran za ovo, ali valjda tako nekako ide: 

    D            G        A 
e|--2-2-2-2-2-2--3-3-3-3--5-5-5-5--|
B|--3-3-3-3-3-3--3-3-3-3--5-5-5-5--|
D|--2-2-2-2-2-2--4-4-4-4--6-6-6-6--|
G|---------------------------------|
A|---------------------------------|
E|---------------------------------|


h  = hammer on
fb = full bend
hb = half bend
(5)= moze se odsvirati ali i ne mora 
            

comments powered by Disqus
↑ Back to top | Prljavo Kazaliste Tabs for Mi Plesemo. Lyrics for acoustic guitar and electric guitar. Tablatures and chords are parodies/interpretations of the original songs. You may use it for private study, scholarship, research or language learning purposes only