» » »

Prljavo Kazaliste, Marina Tabs (ver.1)

Artists:  A B C D E F G H I J K L M N O P Q R S T U V W X Y Z # 

Marina Tabs (ver.1)

Prljavo Kazaliste Tabs
 Rating:
4/5 (4 votes)
Marina lessons Tabs too difficult? Try these video lessons and learn fast
                PRLJAVO KAZALISTE
-----------------
MARINA

H    x24442
Fis  244322
Gism 466444
E    779997 

UVOD I REFREN:  
                                                                       
E|---------------|----------------|---------------|--------------|
B|---5----3--5---|---6-----5--3---|---1----0--1---|----------0---|
G|---5----5--5---|---5-----5--5---|---2----2--2---|---2------0---|
D|---5----5--5---|---5-----5--5---|---2----2--2---|---3------0---|
A|---------------|----------------|---------------|---3----------|
E|---------------|----------------|---------------|--------------|
                                                             
STROFA:

H          Fis             Gism     E  Fis
Na bozicno jutro sneno i mutno
H   Fis       Gism   E  Fis
U kaputu ocevom
H    Fis         Gism   E  Fis
Malcice prevelikom
H   Fis              Gism
Dosao sam na njena vrata
       E            Fis   H 
Da joj kazem bas da odlazim

Jer nitko nije znao sakrit suze ko Marina
Imala je oci boje vena
Boje vena, boje Dunava
O je, o je je je
Boje vena, boje Dunava


REFREN:

A ja, ja ne mogu bez nje
Boze, boze spasi me


SOLO:

e|-------------------------------------------9-9----7-7--|
B|--9-9h10p9~~--9h10p9-----------9b-12-9-----------------|
D|---------------------11-10-11------------9------9------|
G|-------------------------------------------------------|
A|-------------------------------------------------------|
E|-------------------------------------------------------|

e|-----------------12-10----------------------------------------------------||
B|--9--9-10-12---9-------10-8--12b-12b--------9-10-9--10-12--9brbr----------||
D|--------------------------------------10-8------------------------10-8~~--||
G|--------------------------------------------------------------------------||
A|--------------------------------------------------------------------------||
E|--------------------------------------------------------------------------||
            
Submit corrections

comments powered by Disqus
↑ Back to top | Prljavo Kazaliste Tabs for Marina. Lyrics for acoustic guitar and electric guitar. Tablatures and chords are parodies/interpretations of the original songs. You may use it for private study, scholarship, research or language learning purposes only