>
 >
Luoi Petama

Luoi Petama Guitar Tabs

Prljavo Kazaliste - Luoi Petama chords, tabs, tablatures, lyrics

Guitar lessons | Add/correct | Request | Top 50 tabs Artists:  A B C D E F G H I J K L M N O P Q R S T U V W X Y Z 0-9

Luoi Petama Guitar Tabs – Prljavo Kazaliste

CD, Sheet music, Poster

Do you like Luoi Petama? Share with your friends now
Tabs
C
Jednog dana kad ovaj rat se zavrsi
      F                           Am
Jedva cekam prijatelji sve vas da zagrlim
             G           F            C
Ovako sjedim sam, pa vam ponekad zapjevam.


     C                              G   C
Lupi petama, reci, evo sve za Hrvatsku
        F                              Am
Poljubi zastavu i pusti suzu neku iskrenu
             G       F                C
O Boze cuvaj ti nase golubove i sirotinju
    G                   F         C
Jer bogati se ionako za sebe pobrinu.


Am    F    G    C    G


Ima dana kada ne znam sto cu sa sobom
Jer ne vesele mene bez vas utakmice nedjeljom
A kada padne evo noc dozivam vas imenom
Vas su prekrili zastavom i mahovinom.

A ja sjedim sam pa ponekad za vas otpjevam
Jednog dana kada ovaj rat se zavrsi
Jedva cekam prijatelji sve vas da zagrlim
O Boze cuvaj ti nase golubove i sirotinju
Jer bogati se ionako za sebe pobrinu.

Ima dana kada ne znam sto cu sa sobom
Jer ne vesele mene bez vas utakmice nedjeljom
A kada padne evo noc dozivam vas imenom
Vas su prekrili zastavom mahovinom.

Lupi petama, reci evo sve za Hrvatsku
Poljubi zastavu i pusti suzu neku iskrenu
O Boze cuvaj ti nase golubove i sirotinju
Jer bogati se ionako za sebe pobrinu.


SOLO:
e|----------------------------------------------------------------------------5--7h8p7-----------|
H|----------------------------------------------5h6p5---------------------5h6----------8---8h10--|
G|---------------------7--9--9h10--9~~-------5---------5-----------4s5-7-----------------9-------|
D|---------------7--9------------------5--7---------------5h7-5h7--------------------------------|
A|-------5--7s9----------------------------------------------------------------------------------|
E|-5--7------------------------------------------------------------------------------------------|

e|------------------------------------------------------------------------|
H|---7s8-8--8s6--------------5--------------------------------------------|
G|---8s9-9--9s7--5-7------5-----7----5--5--5---5--------------------------|
D|-------------------5h7-------------5--5--5h7-5h7------------------------|
A|---------------------------------------------------7--5-----------------|
E|------------------------------------------------------------------------|





Comments


Popular Prljavo Kazaliste tabs & chords
A Ti Idi Chords
Badnje Vece Chords
Budala Malena Chords
Mi Plesemo Chords
S Vremena Na Vrijeme Chords
Sve Je Lako Kad Si Mlad Chords
Zaustavite Zemlju Chords
Ma Kog Me Boga Za Tebe Pitaju Tabs
Badnje Vece Ukulele
Heroj Ulice Ukulele


Song lyrics



↑ Back to top | Tablatures and chords are parodies/interpretations of the original songs. You may use it for private study, scholarship, research or language learning purposes only
© 2014 AZChords.com Contact us | Privacy policy | DMCA | Add/correct tabs | Request tabs | Top 50 tabs