>
 >
Crno Bijeli Svijet

Crno Bijeli Svijet Guitar Tabs

Prljavo Kazaliste - Crno Bijeli Svijet chords, tabs, tablatures, lyrics

Guitar lessons | Add/correct | Request | Top 50 tabs Artists:  A B C D E F G H I J K L M N O P Q R S T U V W X Y Z 0-9

Crno Bijeli Svijet Guitar Tabs – Prljavo Kazaliste

CD, Sheet music, Poster

Do you like Crno Bijeli Svijet? Share with your friends now
Tabs
PRLJAVO KAZALISTE
-----------------
CRNO-BIJELI SVIJET



INTRO
-----
    Cm
e|--3-3-3-3-3-3-3-3-3-3-3-3-3-3-3-3-3-3-3-3-3-3-3--|
B|--4-4-4-4-4-4-4-4-4-4-4-4-4-4-4-4-4-4-4-4-4-4-4--|
D|--5-5-5-5-5-5-5-5-5-5-5-5-5-5-5-5-5-5-5-5-5-5-5--|
G|-------------------------------------------------|
A|-------------------------------------------------|
E|-------------------------------------------------|


RIFF 1
------
    Cm            G#/Ab A#/Bb
e|--3-3-x-x-3-x-x-4-x-x-6-x-x--|
B|--4-4-x-x-4-x-x-4-x-x-6-x-x--|
D|--5-5-x-x-5-x-x-5-x-x-7-x-x--|
G|-----------------------------|
A|-----------------------------|
E|-----------------------------|

SOLO 1/RIFF 1
-------------

e|-----------------------|
B|-----------------------|
D|-----------------------|
G|-----------------------|
A|--5-3--5-3---5-3--5-3--|
E|-----------------------|


SOLO 2/RIFF 1
-------------

e|--8-8--8-7-8-7--8-8-8--8-7-8---8-8--8-7-8-7--10-8-7-8-7--|
B|---------------------------------------------------------|
D|---------------------------------------------------------|
G|---------------------------------------------------------|
A|---------------------------------------------------------|
E|---------------------------------------------------------|

Moje ime je Davorin Bogovic,
a ovo sve oko mene to je crno-bijeli svijet.


REFREN
------
RIFF 1/SOLO 2

Crno-bijeli svijet, crno bijeli svijet...


RIFF 2

e|--3-3--4-4--4-4-4-4---3-3--------|
B|--4-4--4-4--4-4-4-4---4-4--------|
D|--5-5--5-5--5-5-5-5---5-5--------| 
G|---------------------------------|
A|---------------------------------|
E|---------------------------------|

SOLO 3/RIFF 2
 
e|---------------------------------|
B|---------------------------------|
D|---------------------------------|
G|---------------------------------|
A|--3-3---------------------5-3-2--|
E|---------------------------------|


STROFA 
------
RIFF 1/SOLO 2

Crno-bijeli televizori
Rijetki nocni tramvaj
Moja bijela djevojka
Uvozni ekskluzivni program

Mama, tata, pas i kravata ra-ta ra-ta!


RIFF 2/SOLO 3 


SOLO 4/RIFF 3
-------------

e|---------------8p7-7h8-8-10b--|
B|--10-8-10-8-------------------|
D|------------9-----------------| 2x
G|------------------------------|
A|------------------------------|
E|------------------------------|

e|----------------------------|----------------------|--------------------------------------|
B|----------------------------|----------------------|--------------------------------------|
D|--9-10--10-10--9-7h9-9p7-7--|--10-10--9-7h9-9p7-7--|--9-10--10-10--9-7h9-9p7-7--10b-10-9--| 2x
G|----------------------------|----------------------|--------------------------------------| 
A|----------------------------|----------------------|--------------------------------------|  
E|----------------------------|----------------------|--------------------------------------|  

e|----------------------------|----------------------|----------------------------------|
B|----------------------------|----------------------|----------------------------------|
D|--9-10--10-10--9-7h9-9p7-7--|--10-10--9-7h9-9p7-7--|--9-10--10-10--9-7h9-9p7-7-7-7-7--| 2x 
G|----------------------------|----------------------|----------------------------------| 
A|----------------------------|----------------------|----------------------------------|  
E|----------------------------|----------------------|----------------------------------|  


RIFF 3

e|--3--3---4/6--6--|
B|--4--4---4/6--6--|
D|--5--5---5/7--7--|
G|-----------------|
A|-----------------|
E|-----------------|


REFREN 
------
RIFF 1/SOLO 1 
RIFF 1/SOLO 2


RIFF 4
------

e|--13-13-13-13-13-13-13-13-13-13-13-13-13-13-13-13-13--|
B|--12-12-12-12-12-12-12-12-12-12-12-12-12-12-12-12-12--|
D|------------------------------------------------------| 2x    
G|------------------------------------------------------| 
A|------------------------------------------------------|
E|------------------------------------------------------|


OUTRO
-----

e|------3-3-3-3-3-3-3-3-3-3-3-3-3-3-3-3-3-3-3--3--|
B|------4-4-4-4-4-4-4-4-4-4-4-4-4-4-4-4-4-4-4--4--|
D|------5-5-5-5-5-5-5-5-5-5-5-5-5-5-5-5-5-5-5--5--|
G|--3-5-------------------------------------------|
A|--3-5-------------------------------------------|
E|------------------------------------------------|


KRAJ





Comments


Popular Prljavo Kazaliste tabs & chords
Lupi Petama Chords
S Vremena Na Vrijeme Chords
Uzalud Vam Trud Sviraci Chords
Ma Kog Me Boga Za Tebe Pitaju Tabs
Mojoj Majci Ruza Hrvatska Tabs
A Ti Idi Ukulele
Bijeli Labude Ukulele
Ipak Ukulele
Mi Plesemo Ukulele
Moj Dom Je Hrvatska Ukulele


Song lyrics



↑ Back to top | Tablatures and chords are parodies/interpretations of the original songs. You may use it for private study, scholarship, research or language learning purposes only
© 2014 AZChords.com Contact us | Privacy policy | DMCA | Add/correct tabs | Request tabs | Top 50 tabs