>
 >
Dream

Dream Guitar Tabs

Priscilla Ahn - Dream chords, tabs, tablatures, lyrics

Guitar lessons | Add/correct | Request | Top 50 tabs Artists:  A B C D E F G H I J K L M N O P Q R S T U V W X Y Z 0-9

Dream Guitar Tabs – Priscilla Ahn

CD, Sheet music, Poster

Do you like Dream? Share with your friends now
ChordsChords v2TabsTabs v2Tabs v3Ukulele
-------------------------------------------------------------------------------
-------------------------------------------------------------------------------

Beautiful song, beautiful girl!


it on the albumversion!

CAPO 2
(SOOOO,for example the 3rd fret is actually the 5th, since I counted from the 2nd
fret where you have the capo)


[INTRO]
e|---------------------------------------------------------------------------|
B|-----1-----1-----1-----1-----1-----1-----1-----1---------------------------|
G|---0-----0-----0-----0-----0-----0-----0-----0-----------------------------|
D|---------------------------------------------------------------------------|
A|-3-----3-----3-----3-----3-----3-----3-----3-------------------------------|
E|---------------------------------------------------------------------------|

[VERSE 1 & 2]
e|---------------------------------------------------------------------------|
B|-----1-----1-----1-----1-----0-----0-----0-----0---------------------------|
G|---0-----0-----0-----0-----0-----0-----0-----0-------5-----5-----5-----5---|
D|---------------------------------------------------5-----5-----5-----5-----|
A|-3-----3-----3-----3-----------------------------0-----0-----0-----0-------|
E|-------------------------1-----1-----1-----1-------------------------------|
                                                                                 X 2
e|---------------------------------------------------------------------------|
B|-----1-----1-----1-----0---------------------------------------------------|
G|---------------------------------------------------------------------------|
D|---------------------------------------------------------------------------|
A|---0-----0-----0-----0-----------------------------------------------------|
E|-1-----1-----1-----1-------------------------------------------------------|


[CHORUS]
e|---------------------------------------------------------------------------|
B|-----1-----1-----1----1-----0-----0----0-----0-----1-----1-----1-----1-----|
G|---0-----0-----0-----0----0-----0----0-----0-----0-----0-----0-----0-------|
D|---------------------------------------------------------------------------|
A|-3-----3-----3-----3-------------------------------------------------------|
E|------------------------0-----0----0-----0-----1-----1-----1-----1---------|

e|-----------------3----------------1-----------1-----------1----------------|
B|-----1-----0----------------1-----------1-----------1-----------1--0-------|
G|---0-----0-----0-----0-----------------------------------------------------|
D|---------------------------------------------------------------------------|
A|-3-----3------------------0-----0-----0-----0-----0-----0-----0------------|
E|-------------3-----3----1-----1-----1-----1-----1-----1-----1--------------|

[VERSE 2]

[CHORUS]

[rest of the song?:P]

e|---------------------------------------------------------------------------|
B|-----1-----1-----1-----0-----0-----0-----0-----0-----1-----1-----1-----0---|----
G|---0-----0-----0-----0-----0-----0-----0-----0-----0-----0-----0-----0-----|    |
D|---------------------------------------------------------------------------|    |
A|-3-----3-----3-----3-----------------------------0-----0-----0-----0-------|    |
E|-------------------------3-----3-----3-----3-------------------------------|    |
                                                                                  |
                                                                                 x4
e|---------------------------------------------------------------------------|    |
B|-----0-----0-----0-----0---------------------------------------------------|    |
G|---------------------------------------------------------------------------|    |
D|---------------------------------------------------------------------------|    |
A|---0-----0-----0-----0-----------------------------------------------------|----
E|-1-----1-----1-----1-------------------------------------------------------|



e|---------------------------------------------------------------------------|
B|-----1-----1-----1-----1-----0-----0-----0-----0---------------------------|
G|---0-----0-----0-----0-----0-----0-----0-----0-------5-----5-----5-----5---|
D|---------------------------------------------------5-----5-----5-----5-----|
A|-3-----3-----3-----3-----------------------------0-----0-----0-----0-------|
E|-------------------------1-----1-----1-----1-------------------------------|
                                                                                 
e|---------------------------------------------------------------------------|
B|-----1-----1-----1-----0---------------------------------------------------|
G|---------------------------------------------------------------------------|
D|---------------------------------------------------------------------------|
A|---0-----0-----0-----0-----------------------------------------------------|
E|-1-----1-----1-----1-------------------------------------------------------|

e|--------------------------------------------------0-----1-----3------------|
B|-----1-----1-----1-----1-----0-----0-----0-----0--1-----1-----3------------|
G|---0-----0-----0-----0-----0-----0-----0-----0----2-x12-2-x12-0-x12--------|
D|--------------------------------------------------2-----3-----0------------|
A|-3-----3-----3-----3------------------------------0-----3-----2------------|
E|-------------------------1-----1-----1-----1------0-----1-----3------------|
                                                                                 


e|-----------------------------------0---------------------------------------|
B|-----1-----1-----1-----1-----1-----------1-----1-----1-----1-----1-----1---|
G|---0-----0-----0-----0-----0-----0-----0-----0-----0-----0-----0-----0-----|
D|---------------------------------------------------------------------------|
A|-3-----3-----3-----3-------------------------------------------------------|
E|-------------------------1-----1-----1-----1-----1-----1-----1-----1-------|


e|---------------------------------------------------------------------------|
B|-----1-----1-----1-----0-----0-----0-----0-----0-----1-----1-----1-----0---|----
G|---0-----0-----0-----0-----0-----0-----0-----0-----0-----0-----0-----0-----|    |
D|---------------------------------------------------------------------------|    |
A|-3-----3-----3-----3-----------------------------0-----0-----0-----0-------|    |
E|-------------------------3-----3-----3-----3-------------------------------|    |
                                                                                  |
                                                                                 x3
e|---------------------------------------------------------------------------|    |
B|-----0-----0-----0-----0---------------------------------------------------|    |
G|---------------------------------------------------------------------------|    |
D|---------------------------------------------------------------------------|    |
A|---0-----0-----0-----0-----------------------------------------------------|----
E|-1-----1-----1-----1-------------------------------------------------------|


e|-----------------------------3-----------3-----------------1------------0--|
B|-----1-----1-----1-----1-----------0-----------0-----1-----------1------1--|
G|---0-----0-----0-----0-----0-----0-----0-----0------------------------2-0--|
D|--------------------------------------------------------------------3---2--|
A|-3-----3-----3-----3-------------------------------0-----0-----0--------3--|
E|-------------------------3-----3-----3-----3-----1-----1-----1-----1----0--|





Comments


Popular Priscilla Ahn tabs & chords
Masters In China 1 Chords
Sayonara Color Chords
Wallflower 2 Chords
In A Tree Tabs
City Lights Ukulele
I Dont Have Time To Be In Love Ukulele
I Dont Think So Ukulele
In A Tree Ukulele
Oo La La Ukulele
The Boob Song Ukulele


Song lyrics



↑ Back to top | Tablatures and chords are parodies/interpretations of the original songs. You may use it for private study, scholarship, research or language learning purposes only
© 2014 AZChords.com Contact us | Privacy policy | DMCA | Add/correct tabs | Request tabs | Top 50 tabs