>
 >
Year Of The Parrot

Year Of The Parrot Guitar Tabs

Primus - Year Of The Parrot chords, tabs, tablatures, lyrics

Guitar lessons | Add/correct | Request | Top 50 tabs Artists:  A B C D E F G H I J K L M N O P Q R S T U V W X Y Z 0-9

Year Of The Parrot Guitar Tabs – Primus

CD, Sheet music, Poster

Do you like Year Of The Parrot? Share with your friends now
Bass TabsTabs


Tuning: EADgbe


| /  slide up
| \  slide down
| h  hammer-on
| p  pull-off
| ~  vibrato
| +  harmonic
| x  Mute note
| b  Bend





e|-------------------|5x
B|-------------------|
G|--5\---------------|
D|--5\---------------|
A|-------------------|
E|-------------------|





e|-------------------|
B|-------------------|
G|---7----5\---------|
D|---7----5\---------|
A|-------------------|
E|-------------------|




e|-------------------|
B|-------------------|
G|--5\---------------|
D|--5\---------------|
A|-------------------|
E|-------------------|




e|-------------------|
B|-------------------|
G|---7---5\----------|
D|---7---5\----------|
A|-------------------|
E|-------------------|



e|------------------------------|
B|---------------11-------------|
G|----9------9---11-------------|
D|----9---10---------11h12p10---|
A|------------------------------|
E|------------------------------|


e|------------------------------|
B|---------------11--11---------|
G|----9------9---11--11---------|
D|----9---10--------------------|
A|------------------------------|
E|------------------------------|



e|---------9h10-10--------9h10-10----|
B|-----------------------------------|
G|-----------------------------------|
D|-----------------------------------|
A|--8---5-----------8--5-------------|
E|--6---3-----------6--3-------------|




e|-------------------------------------------------------------------|
B|-----------11------------------11--------11-11--------11-11/17-----|
G|-------9---11---------------9--11-----9--11-11-----9--11-11/17-----|
D|----10---------10h11-----10--------10-----------10-----------------|
A|---------------------10--------------------------------------------|
E|-------------------------------------------------------------------|



e|-----------------------------------------------------|
B|---------------11------------------------------------|
G|----9------9---11------------9-----9--9--------------|
D|----9---10--------11h12p10---9--10------10-8---------|
A|---------------------------------------------7-------|
E|-----------------------------------------------------|



e|---------9h10-10--------9h10-10----|
B|-----------------------------------|
G|-----------------------------------|
D|-----------------------------------|
A|--8---5-----------8--5-------------|
E|--6---3-----------6--3-------------|



e|------------------------------------------------------------------------------------|
B|-----------11-------------------11--17-17-17--------11-------------------11-11------|
G|-------9---11----------------9--11--17-17-17-----9--11----------------9--11-11------|
D|----10---------11h12p10---10------------------10--------11h12p10---10---------------|
A|------------------------------------------------------------------------------------|
E|------------------------------------------------------------------------------------|



e|-----------------------------------------------|
B|---------------11----------------------11------|
G|----9------9---11-------------9-----9--11------|
D|----9---10---------11h12p10---9--10------------|
A|-----------------------------------------------|
E|-----------------------------------------------|



e|---------9h10-10--------9h10-10----|
B|-----------------------------------|
G|-----------------------------------|
D|-----------------------------------|
A|--8---5-----------8--5-------------|
E|--6---3-----------6--3-------------|


e|-----------------------------------------------|
B|------8-7-5---5-7-8-7-5-----12-11--------------|
G|--9---------5-----------5---------9---9--------|
D|--9---------------------------------8---8------|
A|------------------------------------------7----|
E|-----------------------------------------------|


e|------------------------------|
B|---------------11-------------|
G|----9------9---11-------------|
D|----9---10---------11h12p10---|
A|------------------------------|
E|------------------------------|


e|------------------------------|
B|---------------11--11---------|
G|----9------9---11--11---------|
D|----9---10--------------------|
A|------------------------------|
E|------------------------------|



e|---------9h10-10--------9h10-10----|
B|-----------------------------------|
G|-----------------------------------|
D|-----------------------------------|
A|--8---5-----------8--5-------------|
E|--6---3-----------6--3-------------|


e|-------------------|3x
B|-------------------|
G|-------------------|
D|--12---9---7-------|
A|--10---7---5-------|
E|-------------------|




1st solo

e|------------------------------------------------|
B|------------------------------------------------|
G|---12--11h12p11-----11--------------------------|
D|-----------------12----12--11h12p11--9----------|
A|---------------------------------------10-------|
E|------------------------------------------------|


e|----------------------------------------------------------------------------------------------|
B|------14-15-17----17-15-14---15-14------------------------------------------------------------|
G|---15--------------------17-------17-15-14----15-14-------------------------------------------|
D|-------------------------------------------17-------17-15-17-15-14----15-14-------14----------|
A|-------------------------------------------------------------------17-------17-15----17-15-14-|
E|----------------------------------------------------------------------------------------------|


e|--------------------------------------------------13~-14~-15~--------|
B|----------------------------------------------14~--------------------|
G|-------------------------------------16-14-13------------------------|
D|----------------------------16-14-13---------------------------------|
A|--14\10/12--12/16--16-14-13------------------------------------------|
E|---------------------------------------------------------------------|



e|----------------------------------------------------------------|
B|----------------------------------------------------------------|
G|--5\--5---7--5\---5-5--10-10--8-8--5\--3-3--3-3--3-3--5\--5-----|
D|--5\--5---7--5\---5-5--10-10--8-8--5\--3-3--3-3--3-3--5\--5-----|
A|----------------------------------------------------------------|
E|----------------------------------------------------------------|


e|--------------------------------------------------------------------------|
B|--------------------------------------------------------------------------|
G|--------------------------------------------------------------------------|
D|-5-7-5-7-5-7-5--4---5-7-5-7-5--4---------------------7h9h10p9p7-9/13------|
A|----------------------------------3/5---7h9h10p9p7h9----------------------|
E|--------------------------------------------------------------------------|


e|--------------------------------------------------8----------|
B|-------------------------------------------------------------|
G|--8h9h11p9p8----8h9h11p9p8-8-9-8---------------9-------------|
D|---------------------------------10p9p7---9-10---------------|
A|-------------------------------------------------------------|
E|-------------------------------------------------------------|





e|------------------------------|
B|---------------11-------------|
G|----9------9---11-------------|
D|----9---10---------11h12p10---|
A|------------------------------|
E|------------------------------|


e|------------------------------|
B|---------------11--11---------|
G|----9------9---11--11---------|
D|----9---10--------------------|
A|------------------------------|
E|------------------------------|



e|---------9h10-10--------9h10-10----|
B|-----------------------------------|
G|-----------------------------------|
D|-----------------------------------|
A|--8---5-----------8--5-------------|
E|--6---3-----------6--3-------------|



Wah solo

e|-------------------------------------------------|     
B|-------------------------------------------------|     
G|--9---9--------9----9---------9--------------9-0-|     
D|--9-----8-10-8--------10-8-10--------------------|     
A|-----------------7-------------7-5-5-7-0-7-0-----|     
E|-------------------------------------------------|    


e|------------------------------------------------------|
B|------------------------------------------------------|
G|--15-15---------------------------------9--------15---|
D|--------14----14---9----9-9----9-----10---10-----14---|
A|-----------13--------10-----10---10---------10--------|
E|------------------------------------------------------|





e|--------------9h10-10--------9h10-10----|
B|----------------------------------------|
G|--9-------------------------------------|
D|--9-------------------------------------|
A|-------8---5-----------8--5-------------|
E|-------6---3-----------6--3-------------|



e|------------------------------|3x
B|------------------------------|
G|------------------12----12----|
D|--12---9---7---12----12-------|
A|--10---7---5------------------|
E|------------------------------|




3thd solo

e|--------------------------------------------|
B|--------------------------------------------|
G|--12-11h12h11h12----------------------------|
D|-----------------11h12h11h12h11h12----------|
A|-----------------------------------10-------|
E|--------------------------------------------|


e|-------------------------------------------------------------------------------------15-------|
B|--15-----------------------------------------------------14-------14-15----14-15-17-----------|
G|--------------------14-------14-15----14-15-17--14-15-17----15-17-------17--------------------|
D|-----16----14-15-17---15-17--------17---------------------------------------------------------|
A|----------------------------------------------------------------------------------------------|
E|----------------------------------------------------------------------------------------------|


e|-------------------------------------------------------------------------|
B|-------12/15\14----------------------------------------------------------|
G|---12-----------12/14\12---12/14-----------------------------------------|
D|-------------------------------------------15-17-------------------------|
A|-------------------------------------16-18--------16/17--12/13--10-------|
E|---------------------------------15--------------------------------------|


e|---------------------------------------------------------14----14----14-15-17----|
B|---------------------------------------------------------------------------------|
G|------12-11---11h12h11h12--15--15-14--15h16h18-16-15-16-----16----16-------------|
D|---14----------------------------------------------------------------------------|
A|---------------------------------------------------------------------------------|
E|---------------------------------------------------------------------------------|


e|--17-15-14---------------------------------------------------------------|
B|------------17-15-14-17-15-14--------------------------------------------|
G|-------------------------------19-17-16-17-16-19--17-16------------------|
D|--------------------------------------------------------16--------16-----|
A|-----------------------------------------------------------16--18--------|
E|-------------------------------------------------------------------------|


e|-----------------------------------------|
B|-----------------------------------------|
G|--14-13-12-------------------------------|
D|-----------14-13-12----------------------|
A|--------------------14-13-12---5-7-10----|
E|-----------------------------------------|





Comments


Popular Primus tabs & chords
Fisticuffs Bass Tabs
Hoinfodaman Bass Tabs
Is It Luck? 1 Bass Tabs
Jellikit Bass Tabs
Natural Joe 3 Bass Tabs
To Defy The Laws Of Tradition 1 Bass Tabs
Wynona's Big Brown Beaver 1 Bass Tabs
Antipop 1 Tabs
Bob 1 Tabs
Shake Hands With Beef 1 Tabs


Song lyrics



↑ Back to top | Tablatures and chords are parodies/interpretations of the original songs. You may use it for private study, scholarship, research or language learning purposes only
© 2014 AZChords.com Contact us | Privacy policy | DMCA | Add/correct tabs | Request tabs | Top 50 tabs