» » »

The Carpenter And The Dainty Bride Bass tabs (ver.2)

Artists:  A B C D E F G H I J K L M N O P Q R S T U V W X Y Z # 

The Carpenter And The Dainty Bride Bass tabs (ver.2)

Primus
Rating:
0/5 (0 votes)

Hard to play? Try these video lessons and learn fast.
                Ok, don't get to mad if I mess up any part too badly because this is my first tab and there is a lot in this song that I’m not sure about. If there is anything that you find wrong, please E-Mail me the corrections. 

 

P=pop

S=slap

T=tap

h=hammer on

p=pull off

/ \=slide up/down

 

Intro/chorus (some sort of delay used… I think)

 

G----h9---------h9-----

D------------------------

A----------13-----------

E------------------------

B------------------------

                T       

VARIATION 1

G----h9------h9-----h11------h11-----h9-----h9----------

D-------------------------------------------------------------

A---------13---------------13--------------13--------------

E------------------------------------------------------------

B------------------------------------------------------------

               T                      T                     T   

VARIATION 2

G----h9------h9---------

D--------------------\-----

A--------13------13\-----

E----------------------

B---------------------- 

              T          T  

Verse 

G----------------------------------------------------------------------------------

D--15-15-15------15-15-15-------15-15-15------------------15-15-15------

A--15-15-15------15-15-15-------15-15-15------------------15-15-15------

E----------------------------------------------------------------3-------------------

B--------------2p0-------------5p2-------------2p0--0h2h5----------------2---

   T  T  T  S      T T   T   S      T   T   T  S      S         P  T  T   T    S

G----------------------------------

D--15-15-15---15-15-15------

A--15-15-15---15-15-15------

E----------------------------------

B--------------2-------------2----

      T   T  T   S  T T   T    S

 

Bridge

G---------------------------------------------------
D---------------------------------------------------

A---------------------------------------------------

E--777777777777777777777777777777777

B---------------------------------------------------

 

G----------------------9/-----------------------------
D----------------------9/----------------------------

A---------------------------------------------------

E----777777777----------------------------------

B---------------------------------------------------

 

G---------------------------------------------------
D---------------------------------------------------

A---------------------------------------------------

E----77777777\4/777777777-----------------

B---------------------------------------------------

 

And the order is (excluding variations)

 

Intro/chorus

Verse

Intro/chorus

Verse

Into/chorus

Bridge

Verse

Into/chorus

 

PRIMUS RULES!!!!!!!
            
Hard to play? Try these video lessons and learn fast. | Correct




comments powered by Disqus
↑ Back to top | Tablatures and chords are parodies/interpretations of the original songs. You may use it for private study, scholarship, research or language learning purposes only