» » »

The Air Is Getting Slippery Bass tabs (ver.1)

Artists:  A B C D E F G H I J K L M N O P Q R S T U V W X Y Z # 

The Air Is Getting Slippery Bass tabs (ver.1)

Primus
Rating:
0/5 (0 votes)

Hard to play? Try these video lessons and learn fast.
                Drop tuning to Gb, Ab, Db, and Eb.

Riff One
Gb------------------------------------------------------------------------|
Db---7-7---6---5---5-3---2---1--------------------------------------------|
Ab------------------------------------------------------------------------|
Eb------------------------------------------------------------------------|

Riff Two
Gb------------------------------------------------------------------------|
Db-0-1---4-----0-1---4-----0-1---4-----0-1--------------------------------|
Ab---------1-----------1-----------1--------------------------------------|
Eb------------------------------------------------------------------------|

Riff Three
Gb------------------------------------------------------------------------|
Db--9--6/8--5---5-66-7--8-----3-------------------------------------------|
Ab------------------------------------------------------------------------|
Eb------------------------------------------------------------------------|

Listen to the song for the structure. (It's really easy to figure out)
            
Hard to play? Try these video lessons and learn fast. | Correct




comments powered by Disqus
↑ Back to top | Tablatures and chords are parodies/interpretations of the original songs. You may use it for private study, scholarship, research or language learning purposes only