» » »

Spegetti Western Bass tabs (ver.2)

Artists:  A B C D E F G H I J K L M N O P Q R S T U V W X Y Z # 

Spegetti Western Bass tabs (ver.2)

Primus
Rating:
0/5 (0 votes)

Tabs too difficult? Try these video lessons and learn fast.
                Like all primus songs there are lots of slight variations, so you can just ad lib at 
during the chorus and verse and just have fun

s = slap
p = pop
/ = slide up
\ = slide down
#h# = hammer on
#p# = pull off
V = dowstroke
^ = upstroke
~ = let note ring
<#> = Tremolo bar

Intro:
  V          V                         V           V
G------------------------------------------------------------------|
D-0~~~~~~~~~~0~~~~~~~~~~~~~~~~~~~~~~~~~0~~~~~~~~~~<0>~~~~~~~~~~~~~-|
A-0~~~~~~~~~~0~~~~~~~~~~~~~~~~~~~~~~~~~0~~~~~~~~~~<0>~~~~~~~~~~~~~-|
E-0~~~~~~~~~~0~~~~~~~~~~~~~~~~~~~~~~~~~0~~~~~~~~~~<0>~~~~~~~~~~~~~-|

  V                                    V
G--------------------------------------9~~~~~~~~~~~~~~~~~~~~~~~~~~~~~~~~~~~~-|
D-0~~~~~~~~~~~~~~~~~~~~~~~~~~~~~~~~~~~~9~~~~~~~~~~~~~~~~~~~~~~~~~~~~~~~~~~~~-|
A-0~~~~~~~~~~~~~~~~~~~~~~~~~~~~~~~~~~~~7~~~~~~~~~~~~~~~~~~~~~~~~~~~~~~~~~~~~-|
E-0~~~~~~~~~~~~~~~~~~~~~~~~~~~~~~~~~~~~0~~~~~~~~~~~~~~~~~~~~~~~~~~~~~~~~~~~~-|

  V                                     V
G-9------------------------------------<9>~~~~~~~~~~~~~~~~~~~~~~~~~~~~~~~~~~~~-|
D-9~~~~~~~~~~~~~~~~~~~~~~~~~~~~~~~~~~~~<9>~~~~~~~~~~~~~~~~~~~~~~~~~~~~~~~~~~~~-|
A-7~~~~~~~~~~~~~~~~~~~~~~~~~~~~~~~~~~~~<7>~~~~~~~~~~~~~~~~~~~~~~~~~~~~~~~~~~~~-|
E-0~~~~~~~~~~~~~~~~~~~~~~~~~~~~~~~~~~~~<0>~~~~~~~~~~~~~~~~~~~~~~~~~~~~~~~~~~~~-|

  V                                    V
G-9------------------------------------9~~~~~~~~~~~~~~~~~~~~~~~~~~~~~~~~~~~~-|
D-9~~~~~~~~~~~~~~~~~~~~~~~~~~~~~~~~~~~~9~~~~~~~~~~~~~~~~~~~~~~~~~~~~~~~~~~~~-|
A-7~~~~~~~~~~~~~~~~~~~~~~~~~~~~~~~~~~~~7~~~~~~~~~~~~~~~~~~~~~~~~~~~~~~~~~~~~-|
E-0~~~~~~~~~~~~~~~~~~~~~~~~~~~~~~~~~~~~0~~~~~~~~~~~~~~~~~~~~~~~~~~~~~~~~~~~~-|

Verse:
  V
G-9~~~~~~~~~~~~~~~~~~~~~~~~~~~~~~~~~~~~-|
D-9~~~~~~~~~~~~~~~~~~~~~~~~~~~~~~~~~~~~-|
A-7~~~~~~~~~~~~~~~~~~~~~~~~~~~~~~~~~~~~-|
E-0~~~~~~~~~~~~~~~~~~~~~~~~~~~~~~~~~~~~-|
  V                                                             V ^
G-9\------------------------------9-----9p7---------------------7-7-|
D-9\---------------------------------------------5--------------8-8-|
A-7\----------------------------------------------------------------|
E----/19\/20\---0--0---0--x-0--0-----x-------0-------x-5p3-0--------|
      s         s  s   s  s s  s  p  s  p    s    p   s s   s

G--------------------------------------------------------|
D--------------------5--------------5--------------------|
A------------------------------------------------8-8-8-8-|
E-0--0---0--x-0--0-------x-5p3-0--------x-5p3-0----------|
  s  s   s  s s  s   p   s s   s    p   s s   s  s s s s

Chorus:                                            V  ^
G---------------------------9p7--------------------/7-7-|
D--------------------5---------------5-------------/8-8-|
A-------------------------------------------------------|
E-0--0---0--x-0--0-------x-------0-------x-5p3-0--------|
  s  s   s  s s  s   p   s  p    s   p   s s   s

                                                   V  ^  V
G---------------------------9p7--------------------/7-7--7-|
D--------------------5---------------5-------------/8-8--8-|
A----------------------------------------------------------|
E-0--0---0--x-0--0-------x-------0-------x-5p3-0-----------|
  s  s   s  s s  s   p   s  p    s   p   s s   s

                                                   V   V
G---------------------------9p7--------------------/7--7-|
D--------------------5---------------5-------------/8--8-|
A--------------------------------------------------------|
E-0--0---0--x-0--0-------x-------0-------x-5p3-0---------|
  s  s   s  s s  s   p   s  p    s   p   s s   s

G--------------------------------------------------------|
D--------------------5--------------5--------------------|
A------------------------------------------------8-8-8-8-|
E-0--0---0--x-0--0-------x-5p3-0--------x-5p3-0----------|
  s  s   s  s s  s   p   s s   s    p   s s   s  s s s s

G-------------------------|
D---------5---------------|
A-------------------------|
E-5p3-0-------x-5---3/19\-|
  s   s   p   s s   s

Interlude:
G--------------------------------------------------------------------------|
D--------------------------------------------------------------------------|
A-13-----13-----13-----14-----14-----14-----13-----13-----13-----13-----11-|
E----0-0----0-0----0-0----0-0----0-0----0-0----0-0----0-0----0-0----0-0----|

G------------------------------------------------------------------------------|
D------------------------------------------------------------------------------|
A-----13-----14-----13-----14-----14-----13-----14-----13-----11-----13-----11-|
E-0-0----0-0----0-0----0-0----0-0----0-0----0-0----0-0----0-0----0-0----0-0----|

G---------------------------------------------------------------------------|
D---------------------------------------------------------------------------|
A-----13-----13-----14-----14-----15-----13-----11-----13-----13-----11-----|
E-0-0----0-0----0-0----0-0----0-0----0-0----0-0----0-0----0-0----0-0----0-0-|

G------------------------------------------------------------------------|
D------------------------------------------------------------------------|
A-13-----13-----14-----13-----14-----14-----13-----11-----13-----14------|
E----0-0----0-0----0-0----0-0----0-0----0-0----0-0----0-0----0-0----0/x\-|

Outro:
G-15-----15-----15-----15-----15-----16-----15-----15-----15-----15-----13-|
D--------------------------------------------------------------------------|
A--------------------------------------------------------------------------|
E----0-0----0-0----0-0----0-0----0-0----0-0----0-0----0-0----0-0----0-0----|

G-----13-----15-----15-----15-----16\13-----16-----13-----15-----15-----11-|
D--------------------------------------------------------------------------|
A--------------------------------------------------------------------------|
E-0-0----0-0----0-0----0-0----0-0-------0-0----0-0----0-0----0-0----0-0----|

G-----15-----15-----15-----15-----16-----15-----15-----15-----15-----13-|
D-----------------------------------------------------------------------|
A-----------------------------------------------------------------------|
E-0-0----0-0----0-0----0-0----0-0----0-0----0-0----0-0----0-0----0-0----|

G-----15-----15-----16-----15-----13-----11-----8-----9-----8-----6---------|
D---------------------------------------------------------------------------|
A---------------------------------------------------------------------------|
E-0-0----0-0----0-0----0-0----0-0----0-0----0-0----0-0--0-0---0-0---0-0-0-0-|

G---------------------------------------------------------------------------|
D---------------------------------------------------------------------------|
A-----13-----13-----13-----13-----14-----13-----11-----13-----13-----13-----|
E-0-0----0-0----0-0----0-0----0-0----0-0----0-0----0-0----0-0----0-0----0-0-|

G------------------------------------------------------------------------------|
D------------------------------------------------------------------------------|
A-11-----13-----13-----13-----13-----14-----11-----14-----13-----11-----14-----|
E----0-0----0-0----0-0----0-0----0-0----0-0----0-0----0-0----0-0----0-0----0-0-|

G------------------------------------------------------------------------------|
D------------------------------------------------------------------------------|
A-13-----13-----13-----13-----13-----14-----13-----13-----13-----13-----11-----|
E----0-0----0-0----0-0----0-0----0-0----0-0----0-0----0-0----0-0----0-0----0-0-|

                                                                         V
G-----------------------------------------------------------------------<9>~~~~~-|
D-----------------------------------------------------------------------<9>~~~~~-|
A-13-----13-----14-----13-----14-----13-----11-----14-----13-----11-----<7>~~~~~-|
E----0-0----0-0----0-0----0-0----0-0----0-0----0-0----0-0----0-0----0-0-<0>~~~~~-|
            
Tabs too difficult? Try these video lessons and learn fast.


comments powered by Disqus
↑ Back to top | Tablatures and chords are parodies/interpretations of the original songs. You may use it for private study, scholarship, research or language learning purposes only