» » »

Primus, South Park Song Tabs (ver.1)

Artists:  A B C D E F G H I J K L M N O P Q R S T U V W X Y Z # 

South Park Song Tabs (ver.1)

Primus Tabs
 Rating:
4/5 (4 votes)
South Park Song lessons Tabs too difficult? Try these video lessons and learn fast
                
Primus - "South Park Theme"

Tuning: Dropped C (C G C F A D)

Note: You can play this song in Standard two frets 
lower or even on the same frets and it will sound normal

Legend:
X - Dead Note
~ - Ring Out
/ - Slide

Intro                                        Verse 
                                              
D|-xxxx9-xxx-9-----------------------------|------------------------------|
A|-xxxx8-xxx---7-10-111111-101010-9-9-9-7~-|-x7x7x7x7x7x7x7x7-------------|
F|-------------------9-9-9--8-8-8-7-7-7-5~-|-x5x5x5x5x5x5x5x5-------------|
C|-----------------------------------------|------------------------------|
G|-----------------------------------------|------------------------------|
C|-----------------------------------------|------------------------------|

  Verse (Cont.)

D|---------------------------------xxxx9-xxx-9------xxxx9-xxx-13-14-13----|
A|-7/1010-7/1313-7/1010-7/1313-----xxxx8-xxx---7-10-xxxx8-xxx-------------|
F|-5/-8-8-5/1111-5/-8-8-5/1111--------------------------------------------|
C|------------------------------------------------------------------------|
G|------------------------------------------------------------------------|
C|------------------------------------------------------------------------|

  Verse (Cont.)
  
D|-11/1414-11/1717-11/1414-11/1717-xxxx9-xxx-9------xxxx9-xxxx9-----------|
A|-10/1313-11/1515-10/1313-11/1515-xxxx8-xxx---7-10-xxxx8-xxxx8-----------|
F|------------------------------------------------------------------------|
C|------------------------------------------------------------------------|
G|------------------------------------------------------------------------|
C|------------------------------------------------------------------------|
            
Submit corrections

comments powered by Disqus
↑ Back to top | Primus Tabs for South Park Song. Lyrics for acoustic guitar and electric guitar. Tablatures and chords are parodies/interpretations of the original songs. You may use it for private study, scholarship, research or language learning purposes only