>
 >
Silly Putty

Silly Putty Bass Tabs

Primus - Silly Putty chords, tabs, tablatures, lyrics

Guitar lessons | Add/correct | Request | Top 50 tabs Artists:  A B C D E F G H I J K L M N O P Q R S T U V W X Y Z 0-9

Silly Putty Bass Tabs – Primus

CD, Sheet music, Poster

Do you like Silly Putty? Share with your friends now
Bass TabsBass Tabs v2Bass Tabs v3
Artist  Primus, 
Instrument  bass
Player - Les Claypool
Song - Silly Putty 03- 4:19
Album - Rhinoplasty

proper tuning

G=1
D=2
A=3
E=4

NH = natural harmonics
. = let ring
h = hammer
p = pull off
\ = slide down
/= slide up
^ = bend
x = mute note

 intro
||--11/h\13--------------------------9--11/h\13-11p9-----11--9--|
||--------------------------9/h\11--------------------11--------|
||--------------------------------------------------------------|
||----------0.--------------------------------------------------|

|------------------------------------------------------||
|------------12h14--11------9h11-\-9p0--7h9--7p\5._^\--||
|--0.--------------------------------------------------||
|------------------------------------------------------||

||-------------------7h9--------------------------------||
||------------------------x-----------------5--7--5-----||
||--5--x-4h5-------5----------4\5-------4\5----------7--||
||-----------x-5h7----------x-----x-x-x-----------------||


||------------------------------------------------------------||
||------5---------5--------x---------5--------5--------x------||
||--4\5-------4\5----------------4\5------4\5-----------------||
||---------x---------x--x----x-x-------x---------x--x----x-x--||

||--------------------------------------------------------||
||------5---------5--------x---------5--------5--7--5-----||
||--4\5-------4\5----------------4\5------4\5----------7--||
||---------x---------x--x----x-x-------x------------------||

||------------------------------------------------------------||
||------5---------5--------x---------5--------5--------x------||
||--4\5-------4\5----------------4\5------4\5-----------------||
||---------x---------x--x----x-x-------x---------x--x----x-x--||

||--------------------------------------------------------||
||------5---------5------------------5--------5--7--5-----||
||--4\5-------4\5----------------4\5------4\5----------7--||
||---------x---------x--x--x-x-x-------x------------------||

||---------------------------------------------------||
||------5---------5------------------5--------5h7./--||
||--4\5-------4\5----------------4\5------5h7--------||
||---------x---------x--x--x-x-x-------x-------------||

 

||-------------------------------7.-------------------------------6h7p6h7p6h7.--||
||----------5---7-----------------------------5-----7---------------------------||
||------------------------------------------------------------------------------||
||--5--------------5.---5--3----------5----------------5.---5--3----------------||

||------------------------------19^./-----------------------------5-3-----------||
||----------5---7-----------------------------5-----7----------------5-3--------||
||-----------------------------------------------------------------------5-3----||
||--5./------------5.---5--3----------5./--------------5.---5--3-------------3--||



||--------------------------------------------------------------------||
||--------------5---------5------------------5--------5---------------||
||----------4\5-------4\5--------------4-4\5------4\5-----------------||
||-x--x-x-x--------x---------x--x--x-x---------x---------x--x--x-x-x--||

||----------------------------------------------------------------||
||------5---------5------------------5--------5-------------------||
||--4\5-------4\5----------------4\5------4\5-----12./------------||
||---------x---------x--x--x-x-x-------x----------------x--x-x-x--||

||--------------------------------------------------------||
||------5---------5------------------5--------5--7--5-----||
||--4\5-------4\5----------------4\5------4\5----------7--||
||---------x---------x--x--x-x-x-------x------------------||

||------------------------------------------------------------||
||------5---------5------------------5--------5--------x------||
||--4\5-------4\5----------------4\5------4\5-----------------||
||---------x---------x--x--x-x-x-------x---------x--x----x-x--||

||--------------------------------------------------------||
||------5---------5------------------5--------5--7--5-----||
||--4\5-------4\5----------------4\5------4\5----------7--||
||---------x---------x--x--x-x-x-------x------------------||

||---------------------------------------------------||
||------5---------5------------------5--------5h7./--||
||--4\5-------4\5----------------4\5------5h7--------||
||---------x---------x--x--x-x-x-------x-------------||


                               NH
||-----------------------------7.------------------------------------6---------7-||
||--------5---7-----------------------------5-----7------------------------------||
||--------------------------------------------------------------0h4x----0h4\5x---||
||5--------------5.---5--3----------5----------------5.---5--3-------------------||

||---------------------------6h7p6h7p6.-----------------------------5-3----------||
||---------5---7--------------------------------5-----7----------------5-3-------||
||-------------------------------------------------------------------------5-3---||
||-5./------------5.---5--3-------------5./--------------5.---5--3-------------3-||



||--------------------------------------------------------------------||
||--------------5---------5------------------5--------5---------------||
||----------4\5-------4\5----------4---4-4\5------4\5------------4-4--||
||-x--x-x-x--------x---------x--x----x---------x---------x--x--x------||

||-----------------------------------------------5----------------||
||------5---------5------------------5-------5h7---7p-------------||
||--4\5-------4\5------------4-4-4\5-----4h6-----------6p4--4-4.--||
||---------x---------x--x--x-----------x--------------------------||
                                                             x5
||--------------------------------------------------------------||
||*------5---------5------------------5--------5---------------*||
||*--4\5-------4\5------------4---4\5------4\5------------4----*||
||----------x---------x--x--x---x-------x---------x--x--x---x---||



bass solo : 2:32 sec

||-----------------------------------------------------7h9--7--||
||------5---------5------------------5--------5----------------||
||--4\5-------4\5------------4---4\5------4\5------------------||
||---------x---------x--x--x---x-------x----------x------------||

||-------------------------------------------7-9\11-9p7---9-7--||
||------5---------5------------------5---7h9------------9------||
||--4\5-------4\5------------4---4\5---------------------------||
||---------x---------x--x--x---x-------------------------------||

||----------------------------------------12h14--12-12-------------------12-12./||
||----5--------5-----------------5--12h14---------------14--12------------------||
||4\5------4\5-----------4---4\5--------------------------------14-12/10--------||
||------x--------x--x--x---x----------------------------------------------------||

||-------------------------7h9--9.^p7------------------------------------11p9-----||
||-x-----------------5-7h9------------97-------------------------11--12--------16/||
||x--------------4\5--------------------9-7/-------------109710-------------------||
||---x--x--x-x-x------------------------------10--9--10---------------------------||

||------9h14-11-9-11-14-11-9.-----------------------------------------------19\21||
||9h11------------------------11/---x----------5---------12h14--1412-------------||
||-----------------------------------------4\5-----12h14--------------14-12------||
||-------------------------------------x-x---------------------------------------||

||---------------------------------------------7h9-7------------||
||--x-------5------------------5-----------------------9p7------||
||------4\5----------------4\5-----10--9--10---------------10---||
||----x--------x--x--x-x-x--------------------------------------||

||---x-------------------------12-12-12--12\14-12------------14---13h14-13/--||
||--x--------x------------12----------------------14-12----------------------||
||-----------------12h14--------------------------------14/------------------||
||-----x--x----x-x-----------------------------------------------------------||

||------------------------------------------------------||
||------12h14-12----------------------------------------||
||--10-----------14-12----------------------------------||
||---------------------15-14-13-12-11-10/9/8/7/6/5-3/2--||



||------------------------------------------------------------------------||
||--------------5---------5---7--5.------------5--------5----7----5.------||
||----------4\5-------4\5-------------7----4\5------4\5----------------7--||
||-x--x-x-x--------x-----------------------------x------------------------||

||------------------------------------------------------------------------||
||--------------5---------5---7--5.------------5--------5----7----5/------||
||----------4\5-------4\5-------------7----4\5------4\5-------------------||
||-x--x-x-x--------x-----------------------------x------------------------||



||---------------------------------------------------------------||
||-------------5---------5------------------5--------5--7--5-----||
||---------4\5-------4\5----------------4\5------4\5----------7--||
||x--x-x-x--------x---------x--x--x-x-x-------x------------------||

||------------------------------------------------------------||
||------5---------5------------------5--------5--------x------||
||--4\5-------4\5----------------4\5------4\5-----------------||
||---------x---------x--x--x-x-x-------x---------x--x----x-x--||

||--------------------------------------------------------||
||------5---------5------------------5--------5--7--5-----||
||--4\5-------4\5----------------4\5------4\5----------7--||
||---------x---------x--x--x-4-x-------x------------------||

||---------------------------------------------||
||------5---------5------------------5---------||
||--4\5-------4\5------------4---4\5------12/--||
||---------x---------x--x--x-x-x-------x-------||


                                 NH
||-------------------------------7.-------------------------------6h7p6h7p6h7.--||
||----------5---7-----------------------------5-----7---------------------------||
||------------------------------------------------------------------------------||
||--5--------------5.---5--3----------5----------------5.---5--3----------------||

||------------------------------7h9.------------------------------5-3-----------||
||----------5---7-----------------------------5-----7----------------5-3--------||
||-----------------------------------------------------------------------5-3----||
||--5./------------5.---5--3----------5./--------------5.---5--3-------------3--||


||------------------------------------------------------------||
||-----------------5--------10/-------------------5--------5--||
||--4--7p4--7--4\5------4\5--------4--7p4--7--4\5------4\5----||
||-------------------xx-----------------------------x---------||

||------------------------------------------------------------||
||-----------------5--------5--------------------5--------7/--||
||--4--7p4--7--4\5------4\5-------4--7p4--7--4\5------4\5-----||
||-------------------x---------x-------------------x----------||





Comments


Popular Primus tabs & chords
Coddingtown 1 Bass Tabs
Groundhogs Day Bass Tabs
Mephisto And Kevin 1 Bass Tabs
Mr Krinkle 2 Bass Tabs
Mr. Krinkle 1 Bass Tabs
The Pressman 1 Bass Tabs
Tragedys A Comin Bass Tabs
Antipop 1 Tabs
On The Tweek Again Tabs
Southpark Tabs


Song lyrics



↑ Back to top | Tablatures and chords are parodies/interpretations of the original songs. You may use it for private study, scholarship, research or language learning purposes only
© 2014 AZChords.com Contact us | Privacy policy | DMCA | Add/correct tabs | Request tabs | Top 50 tabs