» » »

Sathington Waltz Bass tabs (ver.1)

Artists:  A B C D E F G H I J K L M N O P Q R S T U V W X Y Z # 

Sathington Waltz Bass tabs (ver.1)

Primus
Rating:
0/5 (0 votes)

Hard to play? Try these video lessons and learn fast.
                Tuning: E-A-D-G
Notes: Played on a 6-string fretless

v - Flemenco Downstroke
^ - Flemenco Upstroke
S - Slap


Main Riff:
     v v       v v      v v
C|-----------------------------------|
G|-----------------------------------|
D|---5/8\------5\4------5/8\---------|
A|---5/8\------5\4------5/8\---------|
E|-----------------------------------|
B|---------0--------0---------3-2-0--|
           S        S         S S S

Live:
           v  ^ v       v v      v  ^ v
C|----------------------------------------|
G|----------------------------------------|
D|---------5h6x/8\------5\4------5h6x/8\--|
A|---------5h6x/8\------5\4------5h6x/8\--|
E|----------------------------------------|
B|--3-2-0-----------0--------0------------|
    S S S           S        S
            
Hard to play? Try these video lessons and learn fast. | Correct




comments powered by Disqus
↑ Back to top | Tablatures and chords are parodies/interpretations of the original songs. You may use it for private study, scholarship, research or language learning purposes only