>
 >
Over The Falls 1

Over The Falls 1 Guitar Tabs

Primus - Over The Falls 1 chords, tabs, tablatures, lyrics

Guitar lessons | Add/correct | Request | Top 50 tabs Artists:  A B C D E F G H I J K L M N O P Q R S T U V W X Y Z 0-9

Over The Falls 1 Guitar Tabs – Primus

CD, Sheet music, Poster

Do you like Over The Falls 1? Share with your friends now
Bass TabsBass Tabs v2Drum TabsTabsTabs v2
----------------------------------------------------------------------------
                         Over the falls-Primus
----------------------------------------------------------------------------

Tuning: standard
One of them songs where the fusion of guitar and bass gives the song its
unique sound. This is how i think the guitar plays behind the bass

e|--------------------------------------------------------------------------|
B|--------------------------------------------------------------------------|
G|--------------------------------------------------------------------------|
D|---5-------------------5--------------------------------------------------|
A|-----5h7----4h5p4--------5h7----------------------------------------------|
E|-0--------0-------5--0-------0h3h5-0h3h5-0h3h5----------------------------|

Then the verse is basically an E major
palm muted# in spots to give the rhythm, down and up strokes denoted
e|---------------------------------------------------------------------------|
B|-------0---0----------0---0----------0---0----------0---0------------------|
G|-----1-1-#-1--------1-1-#-1--------1-1-#-1--------1-1-#-1-----repeat-x-4---|
D|-----2-2-#-2--------2-2-#-2--------2-2-#-2--------2-2-#-2------------------|
A|-2---2---#------2---2---#------2---2---#------2---2---#--------------------|
E|-0--------------0--------------0--------------0----------------------------|
   #   ^ v   v    #   ^ v   v    #   ^ v   v    #   ^ v   v

as he stood by and waited to be called
e|---------------------------------------------------------------------------|
B|---------------then verse riff-x3--------------------0---0------0---0------|
G|-2-2---5-5-5-----------------------2-2---5-5-5-----1-1-#-1----1-1-#-1------|
D|-2-2---5-5-5-----------------------2-2---5-5-5--#--2-2-#-2-#--2-2-#-2------|
A|-0-0-0-3-3-3-----------------------0-0-0-3-3-3--2--2---#---2--2---#--------|
E|------------------------------------------------0----------0---------------|

e|--------------------------------------------------------------------------|
B|-------------------0---0------0---0---------------------------------------|
G|-2-2---5-5-5-----1-1-#-1----1-1-#-1-2-2---5-5--5-3-3--3-2-2-2-3-2---------|
D|-2-2---5-5-5--#--2-2-#-2-#--2-2-#-2-2-2---5-5--5-3-3--3-2-2-2-3-2---------|
A|-0-0-0-3-3-3--2--2---#---2--2---#---0-0-0-3-3--3-1-1--1-0-0x0-1-0---------|
E|--------------0----------0----------------------------------------3-2-1---|
then plays verse riff x1
back to intro riff x4
2nd verse goes thru the same and then goes thru end of verse and intro
riff

************************************

| /   slide up
| \   slide down
| h   hammer-on
| p   pull-off
| ~   vibrato
| +   harmonic
| x   Mute note
| b   Bend
| pb  Pre-bend
| br  Bend release
| pbr Pre-bend release
| brb Bend release bend

************************************





Comments


Popular Primus tabs & chords
Constantinople 1 Bass Tabs
Devil Went Down To Georgia Bass Tabs
Master Of Puppets Bass Tabs
Tippi Toes Bass Tabs
Tippi Toes 2 Bass Tabs
Too Many Puppies 5 Bass Tabs
John The Fisherman 1 Tabs
Over The Falls Tabs
Poetry And Prose 1 Tabs
Shake Hands With Beef 1 Tabs


Song lyrics



↑ Back to top | Tablatures and chords are parodies/interpretations of the original songs. You may use it for private study, scholarship, research or language learning purposes only
© 2014 AZChords.com Contact us | Privacy policy | DMCA | Add/correct tabs | Request tabs | Top 50 tabs