>
 >
My Name Is Mud 1

My Name Is Mud 1 Guitar Tabs

Primus - My Name Is Mud 1 chords, tabs, tablatures, lyrics

Guitar lessons | Add/correct | Request | Top 50 tabs Artists:  A B C D E F G H I J K L M N O P Q R S T U V W X Y Z 0-9

My Name Is Mud 1 Guitar Tabs – Primus

CD, Sheet music, Poster

Do you like My Name Is Mud 1? Share with your friends now
Bass TabsBass Tabs v2Bass Tabs v3Bass Tabs v4Drum TabsTabsTabs v2
#------------------------------------------------------------------------------##

                                 MY NAME IS MUD
                              As recorded by Primus
                         (From the 1993 Album PORK SODA)


Gtr I (E A D G B E) - 'Elec.Gtr.'

 Intro
  Moderate Rock Q=100
 4/4
  Gtr I
  W           Wx4
|----------||--------|
|----------||--------|
|----------||--------|
|----------||--------|
|----------||--------|
|----------||--------|


  H    +E  E    +S  +S     +S  S   +Q   Q   E Q.
|--------------------------------|-------------------|
|--------------------------------|-------------------|
|--------------------------------|-------------------|
|--------------------------------|-------------------|
|--------------------------------|-------------------|
|-2----(2)-2b3==(2)r(2)b3==(2)-2-|-(2)--2r--2-2b4====|


  +H     H      +Q   E   E E E E E
|-------------|---------------------|
|-------------|---------------------|
|-------------|---------------------|
|-------------|---------------------|
|-------------|----------------3----|
|-(2)----2r===|=(2)--2b3-2-2-2---2--|


  Q  Q  +E  Q.       +Q   +Q   +E  Q.    H    +E  E Q    H    +H
|------------------|-------------------|---------------|--------------|
|------------------|-------------------|---------------|--------------|
|------------------|-------------------|---------------|--------------|
|------------------|-------------------|----------4-4--|--------------|
|-3--3--(3)-3b5====|=(3)--(3)--(3)-3r==|=3----(3)------|-3----(3)/----|
|------------------|-------------------|---------------|-2----(2)/----|


 Verse 1
  Wx21
|---------|
|---------|
|---------|
|---------|
|---------|
|---------|


  E E  S     +S  E E   E S    +E  S
|-----------------------------------|
|---0-12b13r(12)-------0------------|
|---0-12b13r(12)-------0-2pb3r(2)-4-|
|-5----------------5b6--------------|
|-4----------------4b5--------------|
|-----------------------------------|


                         PM--|
  E E  S     +S  E E   S S S S S S   E E  S     +S  E E   E E E
|----------------------------------|----------------------------|
|---0-12b13r(12)-------0-----------|---0-12b13r(12)-------0---0-|
|---0-12b13r(12)-------0-7-7-7-7-0-|---0-12b13r(12)-------0---0-|
|-5----------------5b6-------------|-5----------------5b6-------|
|-4----------------4b5-------------|-4----------------4b5-------|
|----------------------------------|----------------------------|


                               Guitar Solo 1
                                ~~~~~    TP  TPTPTP
  E E  E    E E   E E.   +S     H        E   E E E
|----------------------------||---------------------|
|---0-12b13-------0----------||---------------------|
|---0-12b13-------0----------||---------------------|
|-5-----------5b6---9b10r(9)-||-9pb10----9\-/9------|
|-4-----------4b5------------||----------------9----|
|----------------------------||------------------9\-|


  ~~~            ~~
  Q    Q   E     E  S  S  S  S
|------------------------------|
|------------------------------|
|------------------------------|
|------------------------------|
|------------------------------|
|-2b3--2S=14b15-14-14-12-14-14-|


   S     +E   S  +E   E  E  E  S  S     S  S
|--------------------------------------------|
|--------------------------------------------|
|--------------------------17-17-17b18-17-17-|
|--------------------16----------------16-16-|
|------------15-(15)----15-------------------|
|-14b15r(14)---------------------------------|


                                        TP     TP
                              |3| |3-|         |--3---|
   E  E     E  S  S Q   Q     E S E  S  H     +Q   S  S
|--------------------------|----------------------------|
|--------------------------|-10-9-----------------10----|
|-17-17b18-17-17-17--------|------9-10-11----(11)----11-|
|-16-16b17-16-16-16--------|----------------------------|
|--------------------------|----------------------------|
|-------------------x\-----|----------------------------|


   TP    TP                   TP
            |--3--|  |--3--|
   H     E  S  S  S  S  S  S  E
|-------14-15----15----15----14-|
|-------------12----12----12----|
|-11----11-------------------11-|
|-------------------------------|
|-------------------------------|
|-------------------------------|


   TP  TP  TP  TP  TP  TP   TP    TP     TP  TP
   E.  S  +E   E  +E   Q    E     Q   E  E  +E  E E  E
|-15--14-(14)-15-(15)-16------|------------------------|
|-------------------------/14-|-/14--16-16-(16)--------|
|-12--11-(11)-12-(12)-13--/15-|-/15-----17-(17)--------|
|-----------------------------|------------------------|
|-----------------------------|------------------------|
|-----------------------------|-----------------0-x-\2-|


  Q  E    +E  +E  Q.     +H     +E  E Q      +H     +E  E E E   Q.   E +H
|----------------------|-------------------|------------------|---------------||
|----------------------|-------------------|------------------|---------------||
|----------------------|-------------------|------------------|---------------||
|----------------------|-------------------|------------------|---------------||
|----------------------|-------------------|--------------3---|-3-------------||
|-2--2pb3r(2)-(2)-2----|-(2)----(2)-0-2b4--|-(2)----(2)-0---2-|------2-(2)----||


 Verse 2       Chorus
  Wx19          E E  S     +S  E E   E S    +E.   E E  S     +S  E E   E Q
|-------------|---------------------------------|---------------------------|
|-------------|---0-12b13r(12)-------0-8pb9r(8)-|---0-12b13r(12)-------0----|
|-------------|---0-12b13r(12)-------0-8pb9r(8)-|---0-12b13r(12)-------0----|
|-------------|-5----------------5b6------------|-5----------------5b6------|
|-------------|-4----------------4b5------------|-4----------------4b5------|
|-------------|---------------------------------|---------------------------|


  E E  S     +S  E E   E E E
|----------------------------|
|---0-12b13r(12)-------0-----|
|---0-12b13r(12)-------0-0-0-|
|-5----------------5b6-------|
|-4----------------4b5-------|
|----------------------------|


  E E  S     +S  E E   E Q    E E  S     +S  E E   E Q
|---------------------------|----------------------------|
|---0-12b13r(12)-------0----|---0-12b13r(12)-------0-----|
|---0-12b13r(12)-------0----|---0-12b13r(12)-------0-----|
|-5----------------5b6------|-5----------------5b6-------|
|-4----------------4b5------|-4----------------4b5-------|
|---------------------------|----------------------------|


                                                        /0.5\
  E E  S     +S  E E   E Q    E E  S     +S  E E    S   S     +Q
|---------------------------|----------------------<7>-<7>----(7)--|
|---0-12b13r(12)-------0----|---0-12b13r(12)-------<7>-<7>----(7)--|
|---0-12b13r(12)-------0----|---0-12b13r(12)-------<7>-<7>----(7)--|
|-5----------------5b6------|-5----------------5b6-----------------|
|-4----------------4b5------|-4----------------4b5-----------------|
|---------------------------|--------------------------------------|


    E E  S     +S  E E   E Q   9x
||-----------------------------||
||o---0-12b13r(12)-------0----o||
||----0-12b13r(12)-------0-----||
||--5----------------5b6-------||
||o-4----------------4b5------o||
||-----------------------------||


             Guitar Solo 2
                ~~~~~~~~~    ~~~~~~~~~
  W           E Q.   +E  E S E.   +Q   E S S S S S S S S S S
|----------||-------------------|----------------------------|
|----------||-------------------|----------------------------|
|----------||---5----(5)-0------|------------6---------------|
|----------||-4--------------4--|-(4)--4-0-5---0-0-5-5-0-----|
|----------||-------------------|------------------------0-4-|
|----------||-------------------|----------------------------|


  S S S S S S S S S S S S S S S S    S  S S S S S S S S S E S S S S
|---------------------------------|----------------------------------|
|-----------------------4-0-----7-|-<7>-----------4-------7-7--------|
|---------------6---0-3-----0-6---|-------6-6-0-3---3-0-6-----6---0--|
|---------0-5-5-------------------|-----0-----------------------8----|
|-0-4-0-0-------------------------|----------------------------------|
|---------------------------------|----------------------------------|


  S S S S +S  S S S  S  T T S T T E S S   E E E  E  S S  S  S S S  S  S
|---------------------------------------|-------------------------------|
|-4-------------------------------------|-------------------------------|
|---3-0-6-(6)-0-0-0-<5>-0-0-0-0-0-------|-------------------------------|
|---------------------------------------|-------------------------------|
|---------------------------------4-4-4-|-------------------------------|
|---------------------------------0-0-0-|-2-2-2S14-14-0-14-14-0-0-14-14-|


                          |--3--|
   S S  S  S S  S  S S E  S  S  S  S  S  E
|------------------------------------------|
|------------------------------------------|
|---------------------------------11-11-11-|
|------------------------10-10-10----------|
|----------------------9-------------------|
|-14-0-14-14-0-14-14-0---------------------|


                                                          ~~
   S  E  S  +S   S  S     S  S  S      +S   S       +E    E
|------------------------------------------------------------|
|--------------------------------------------------------12--|
|-11-11-11-(11)-11-11b12-11-11-11pb13r(11)-11pb13==(11)r-----|
|----10------------------------------------------------------|
|------------------------------------------------------------|
|------------------------------------------------------------|


          ~~~~~~~~
                          |--3--|  |------6-------|
   E.     S  +Q     S  S  S  S  S  S  S  S  S  S  S
|---------------------14-14-------14-14-14----------|
|------------------12-------12-12-------------------|
|-11b13==11-(11)r--------------------------11-11-11-|
|---------------------------------------------------|
|---------------------------------------------------|
|---------------------------------------------------|


   |3-|  |--3--|  |3-|  |----3----|  |--3--|  |--3--|
   E  S  S  S  S  E  S  S      S  S  E  E  E  E  E  E
|-------------------------------------------------------|
|-------------------------------------------------------|
|-11-11-11-11-11-11-11-11b13==11-11-11-11-11-11-11-11r==|
|-------------------------------------------------------|
|-------------------------------------------------------|
|-------------------------------------------------------|


               TP   TP        TP
   S  S  S  S  Q    H        +W
|-------------------------|--------------|
|-------------------------|--------------|
|-11-11-11-11-11\---------|--------------|
|------------------<4>----|-(<4>)--------|
|-------------------------|--------------|
|-------------------------|--------------|


    TP             TP             TP     TP
   +W             +W             +H      H
|--------------|--------------|----------------|
|--------------|--------------|----------------|
|--------------|--------------|----------------|
|-(<4>)--------|-(<4>)--------|-(<4>)----4S====|
|--------------|--------------|----------------|
|--------------|--------------|----------------|


                Outro
  TP
  H     H        Wx11
|-------------||---------*|
|-------------||---------*|
|-5-----------||---------*|
|-7-----------||---------*|
|-------------||---------*|
|------15\----||---------*|


Duration Legend
---------------
W - whole; H - half; Q - quarter; E - 8th; S - 16th; T - 32nd; X - 64th; a - acciaccatura
+ - note tied to previous; . - note dotted; .. - note double dotted
Uncapitalized letters represent notes that are staccato (1/2 duration)
Irregular groupings are notated above the duration line
Duration letters will always appear directly above the note/fret number it represents the
duration for.  Duration letters with no fret number below them represent rests.  Multi-
bar rests are notated in the form Wxn, where n is the number of bars to rest for.  Low
melody durations appear below the staff

Tablature Legend
----------------
 h   - hammer-on
 p   - pull-off
 b   - bend
 pb  - pre-bend
 r   - bend release (if no number after the r, then release immediately)
 /\  - slide into or out of (from/to "nowhere")
 s   - legato slide
 S   - shift slide
  - natural harmonic
[n]  - artificial harmonic
n(n) - tapped harmonic
 ~   - vibrato
 tr  - trill
 T   - tap
 TP  - trem. picking
 PM  - palm muting
\n/  - tremolo bar dip; n = amount to dip
 \n  - tremolo bar down
 n/  - tremolo bar up
/n\  - tremolo bar inverted dip
 =   - hold bend; also acts as connecting device for hammers/pulls
 <>  - volume swell (louder/softer)
 x   - on rhythm slash represents muted slash
 o   - on rhythm slash represents single note slash

Misc Legend
-----------
 |  - bar
||  - double bar
||o - repeat start
o|| - repeat end
*|  - double bar (ending)
 :  - bar (freetime)
 $  - Segno
 &  - Coda
Tempo markers -  = BPM(8/16=s8/s16), where s8 = swing 8ths, s16 = swing 16ths





Comments


Popular Primus tabs & chords
Coddingtown Bass Tabs
Hello Skinny 1 Bass Tabs
Last Superpower Aka Rapscallion Bass Tabs
Mr. Krinkle Bass Tabs
My Name Is Mud 3 Bass Tabs
Over The Falls 1 Bass Tabs
Pilchers Squad Bass Tabs
South Park Theme 2 Bass Tabs
The Family And The Fishing Net Bass Tabs
Jerry Was A Race Car Driver 4 Tabs


Song lyrics



↑ Back to top | Tablatures and chords are parodies/interpretations of the original songs. You may use it for private study, scholarship, research or language learning purposes only
© 2014 AZChords.com Contact us | Privacy policy | DMCA | Add/correct tabs | Request tabs | Top 50 tabs