>
 >
Jerry Was A Race Car Driver 2

Jerry Was A Race Car Driver 2 Bass Tabs

Primus - Jerry Was A Race Car Driver 2 chords, tabs, tablatures, lyrics

Guitar lessons | Add/correct | Request | Top 50 tabs Artists:  A B C D E F G H I J K L M N O P Q R S T U V W X Y Z 0-9

Jerry Was A Race Car Driver 2 Bass Tabs – Primus

CD, Sheet music, Poster

Do you like Jerry Was A Race Car Driver 2? Share with your friends now
Bass Tabs
Jerry Was A Race Car Driver 
Primus


R - Right Hand Tap
L - Left Hand Tap 
T - Thumb Slap
D - Downstroke
U - Upstroke



Intro
C|-18-------20----------18--18--18-----------|
G|-17-------19----------17--17--17-----------|
D|---------------------------------10h11h13--|
A|----11p10----13p11\10----------------------| x3
E|-------------------------------------------|
B|-------------------------------------------|
    R  L     R  L        R   R   R  L  

C|-18-------20----------18--18---------------|
G|-17-------19----------17--17---------------|
D|-------------------------------------------|
A|----11p10----13p11\10--------10/14\--(10)--| 
E|-------------------------------------------|
B|-------------------------------------------|
    R  L     R  L        R   R  L  

C|-18-------20----------18--18--18-----------|
G|-17-------19----------17--17--17-----------|
D|---------------------------------10h11h13--|
A|----11p10----13p11\10----------------------| x8
E|-------------------------------------------|
B|-------------------------------------------|
    R  L     R  L        R   R   R  L  


First Verse
C|-18-------20----------18--18--18-----------|
G|-17-------19----------17--17--17-----------|
D|---------------------------------10h11h13--|
A|----11p10----13p11\10----------------------| x8
E|-------------------------------------------|
B|-------------------------------------------|
    R  L     R  L        R   R   R  L  

C|-18-------20----------20--20--20------|
G|-17-------19----------19--19--19-13\--|
D|---------------------------------13\--|
A|----11p10----13p11\10-----------------| x4
E|--------------------------------------|
B|--------------------------------------|
    R  L     R  L        R   R   R  L  

C|-18-------20----------18--18--18-----------|
G|-17-------19----------17--17--17-----------|
D|---------------------------------10h11h13--|
A|----11p10----13p11\10----------------------| x4
E|-------------------------------------------|
B|-------------------------------------------|
    R  L     R  L        R   R   R  L  

Second Verse
C|-18-------20----------18--18--18-----------|
G|-17-------19----------17--17--17-----------|
D|---------------------------------10h11h13--|
A|----11p10----13p11\10----------------------| x8
E|-------------------------------------------|
B|-------------------------------------------|
    R  L     R  L        R   R   R  L  

C|-18-------20----------20--20--20------|
G|-17-------19----------19--19--19-13\--|
D|---------------------------------13\--|
A|----11p10----13p11\10-----------------| x3
E|--------------------------------------|
B|--------------------------------------|
    R  L     R  L        R   R   R  L 

C|-20-------21----------20--20--20-----------|
G|-19-------20----------19--19--19-----------|
D|---------------------------------10h11h13--|
A|----11p10----13p11\10----------------------| 
E|-------------------------------------------|
B|-------------------------------------------|
    R  L     R  L        R   R   R  L 

C|-18-------20----------18--18--18-----------|
G|-17-------19----------17--17--17-----------|
D|---------------------------------10h11h13--|
A|----11p10----13p11\10----------------------| x3
E|-------------------------------------------|
B|-------------------------------------------|
    R  L     R  L        R   R   R  L   

C|-18-------20----------18---------|
G|-17-------19----------17---------|
D|---------------------------------|
A|----11p10----13p11\10------------| 
E|---------------------------------|
B|---------------------------------|
    R  L     R  L        R  


Chorus (With Distortion)
C|---------------------x-12-13-15--|
G|---------------------x-12-13-15--|
D|---------------------------------|
A|---------------------------------| x3
E|-0-3p2-0-5p3\2-0--0--------------|
B|---------------------------------|
   T T   T T     T  T  U  D  U  D

C|------------------15-15-15-15-15-15\--|
G|------------------15-15-15-15-15-15\--|
D|--------------------------------------|
A|--------------------------------------| 
E|-0-3p2-0-5p3\2-0----------------------| 
B|--------------------------------------|
   T T   T T     T   U  D  U  D  U  D

C|---------------------x-12-13-15--|
G|---------------------x-12-13-15--|
D|---------------------------------|
A|---------------------------------| 
E|-0-3p2-0-5p3\2-0--0--------------|
B|---------------------------------|
   T T   T T     T  T  U  D  U  D

C|----------------------------|
G|----------------------------|
D|----------------------------|
A|----------------------------|
E|-0-3p2-0-5p3\2-0--0---------| 
B|--------------------3---4---|
   T T   T T     T  T T   T

C|---------------------x-12-13-15--|
G|---------------------x-12-13-15--|
D|---------------------------------|
A|---------------------------------| 
E|-0-3p2-0-5p3\2-0--0--------------|
B|---------------------------------|
   T T   T T     T  T  U  D  U  D

C|-------------------------|
G|-------------------------|
D|-------------------------|
A|-------------------------|
E|-0-3p2-0-5p3\2-----------| 
B|---------------5\--------|
   T T   T T     T    


Guitar Solo
C|-18-------20----------18--18--18-----------|
G|-17-------19----------17--17--17-----------|
D|---------------------------------10h11h13--|
A|----11p10----13p11\10----------------------| x3
E|-------------------------------------------|
B|-------------------------------------------|
    R  L     R  L        R   R   R  L  

C|-18-------20----------18--18---------------|
G|-17-------19----------17--17---------------|
D|-------------------------------------------|
A|----11p10----13p11\10--------10/14\--(10)--| 
E|-------------------------------------------|
B|-------------------------------------------|
    R  L     R  L        R   R  L  

C|-18-------20----------18--18--18-----------|
G|-17-------19----------17--17--17-----------|
D|---------------------------------10h11h13--|
A|----11p10----13p11\10----------------------| x8
E|-------------------------------------------|
B|-------------------------------------------|
    R  L     R  L        R   R   R  L  

C|-18-------20----------20--20--20------|
G|-17-------19----------19--19--19-13\--|
D|---------------------------------13\--|
A|----11p10----13p11\10-----------------| x4
E|--------------------------------------|
B|--------------------------------------|
    R  L     R  L        R   R   R  L 

C|-18-------20----------18--18--18-----------|
G|-17-------19----------17--17--17-----------|
D|---------------------------------10h11h13--|
A|----11p10----13p11\10----------------------| x4
E|-------------------------------------------|
B|-------------------------------------------|
    R  L     R  L        R   R   R  L  


Third Verse
C|-18-------20----------18--18--18-----------|
G|-17-------19----------17--17--17-----------|
D|---------------------------------10h11h13--|
A|----11p10----13p11\10----------------------| x4
E|-------------------------------------------|
B|-------------------------------------------|
    R  L     R  L        R   R   R  L  


Second Chorus (With Distortion)
C|---------------------x-12-13-15--|
G|---------------------x-12-13-15--|
D|---------------------------------|
A|---------------------------------| x3
E|-0-3p2-0-5p3\2-0--0--------------|
B|---------------------------------|
   T T   T T     T  T  U  D  U  D

C|----------------------------|
G|----------------------------|
D|----------------------------|
A|----------------------------|
E|-0-3p2-0-5p3\2-0--0---------| 
B|--------------------3---4---|
   T T   T T     T  T T   T

C|---------------------x-12-13-15--|
G|---------------------x-12-13-15--|
D|---------------------------------|
A|---------------------------------| 
E|-0-3p2-0-5p3\2-0--0--------------|
B|---------------------------------|
   T T   T T     T  T  U  D  U  D

C|-------------------15-15-15-13\-x-11\--|
G|-------------------15-15-15-13\-x-11\--|
D|---------------------------------------|
A|---------------------------------------| 
E|-0-3p2-0-5p3\2--0----------------------|
B|---------------------------------------|
   T T   T T      T   D  U  D  U  D  U

C|---------------------x-12-13-15--|
G|---------------------x-12-13-15--|
D|---------------------------------|
A|---------------------------------| 
E|-0-3p2-0-5p3\2-0--0--------------|
B|---------------------------------|
   T T   T T     T  T  U  D  U  D

C|----------------------------------|
G|----------------------------------|
D|----------------------------------|
A|----------------------------------| 
E|-0-3p2-0-5p3\2--0--0--------------| 
B|---------------------3/--(12\)----|
   T T   T T      T  T T


Interlude (Let B ring throughout)
C|----18-18-21-21---|
G|----17-17-20-20---|
D|------------------|
A|------------------| 
E|------------------| 
B|-0----------------|
   T   R  R  R  R

C|-18-18-18-18-21-21-21-18-|
G|-17-17-17-17-20-20-20-17-|
D|-------------------------|
A|-------------------------| x4
E|-------------------------|
B|-------------------------|
    R  R  R  R  R  R  R  R
 
C|-18-18-18-18-21----------------------------------|
G|-17-17-17-17-20----------------------------------|
D|-------------------------------------------------|
A|-------------------------------------------------| 
E|------------------12/--0--2/------(12)----12\----|
B|-------------------------------------------------|
    R  R  R  R  R   S    T  T                T


Third Chorus (With Distortion)
C|---------------------x-12-13-15--|
G|---------------------x-12-13-15--|
D|---------------------------------|
A|---------------------------------| 
E|-0-3p2-0-5p3\2-0--0--------------|
B|---------------------------------|
   T T   T T     T  T  U  D  U  D

C|-------------------------|
G|-------------------------|
D|-------------------------|
A|-------------------------|
E|-0-3p2-0-5p3\2-----------| 
B|---------------5\--------|
   T T   T T     T    





Comments


Popular Primus tabs & chords
Ballad Of Bodacious Bass Tabs
Bob 2 Bass Tabs
Coddingtown Bass Tabs
Lacquer Head Bass Tabs
Over The Electic Grapevine Bass Tabs
Sargeant Baker Bass Tabs
The Family And The Fishing Net 3 Bass Tabs
Tommy The Cat Live Bass Tabs
Poetry Andse Tabs
South Park Song Tabs


Song lyrics



↑ Back to top | Tablatures and chords are parodies/interpretations of the original songs. You may use it for private study, scholarship, research or language learning purposes only
© 2014 AZChords.com Contact us | Privacy policy | DMCA | Add/correct tabs | Request tabs | Top 50 tabs