>
 >
Harold Of The Rock 1

Harold Of The Rock 1 Bass Tabs

Primus - Harold Of The Rock 1 chords, tabs, tablatures, lyrics

Guitar lessons | Add/correct | Request | Top 50 tabs Artists:  A B C D E F G H I J K L M N O P Q R S T U V W X Y Z 0-9

Harold Of The Rock 1 Bass Tabs – Primus

CD, Sheet music, Poster

Do you like Harold Of The Rock 1? Share with your friends now
Bass TabsBass Tabs v2Bass Tabs v3
tunnig: G.D.A.E.

s= slap
^/v= up/down stroke
[-1-]= one triple
x= dead note
h= hammer on
p= pull off


Main riff:

       |-1-|
G--------------------
D--------------------
A--------------------
E--0hS-0-0-0---------

Chorus riff:

   s [-1-]    v ^ v
G-------------9-8-7----------
D-------------9-8-7- 3 times-
A----------------------------
E--0-0-0-0-------------------

   s [-1-]    v ^  v
G-------------9-10-6-
D-------------9-10-6-
A--------------------
E--0-0-0-0-----------

Interlude:
It's the section with "well, it was just Wendy O. and me":

G----------6-7-------------
D----4-5-9----- I think...-
A--7-----------------------
E--------------------------

Weird thing at 2:06: just play some stuff. I don't want to tab that
part, since I'm not sure about it.

Guitar solo:

I'll start from 2:31.  You might have to figure out something by your
own.

G---------------------------------------------------------
D------------------------------2--------------------5-----
A--4-4-2-2-0-0------------4444---4---2-4-2-4--4-4---------
E--------------4-4-3--33--------------------------3---3-3-

G----------------------------------------
D------2--------2--------2---------------
A--4-2---4--4-2---4--4-2---4--4-4--------
E---------------------------------3-3-33-

G------------------------------------
D----6-4-2------6-4-2----------------
A--4-------2--4-------4-4-2----------
E---------------------------4-3--333-

G-----------
D-------2---
A--4444---4-
E-----------


D-------------------2----/-\--
A--4-----------4444---4-------
E----3-3333-------------------

G----------------6-6-4-4-------4-6-6-4---
D------------------------7-7-7---------7-
A--------0-2-4-5-------------------------
E--3--33---------------------------------

                 h p
G----------------------------
D--5-x-5-x-5-x-5-7-5-5-5-----
A------------------------7-5-
E----------------------------

                 h p
G----------------------------------------------------------
D--5-x-5-x-5-x-5-7-5-5-5-----------------------------------
A-------------------------4-4-2-2-0-0----------------------
E-------------------------------------4-4-3-3-2-2-1-1-000--

   v ^ v ^ v ^ v ^ v
G--9-8-7-6-5-4-5-9-10-----------------------
D--9-8-7-6-5-4-5-9-10-- this is just before-
A---------------------- so in the end-------
E-------------------------------------------

"..So in the end":

[Just variate between these]
G----9---9----8---9------------------------
D------------------- play this with your---
A--7---7----7---7--- thumb&index finger ---
E------------------------------------------

"..couple of dumb***s":

Just play the chorus twice and end at a slap at E-7. Then:

G--------------------9---------9-11-9----
D------6-6-7-7-8-8-9---11-9-11-----------
A--7-7-----------------------------------
E--------------------------------------0-





Comments


Popular Primus tabs & chords
Antipop 1 Bass Tabs
Dmv 3 Bass Tabs
Ground Hog's Day 1 Bass Tabs
Here Come The Bastards 6 Bass Tabs
Primus All Bass Tabs
On The Tweek Again Chords
Dmv 1 Tabs
Making Plans For Nigel 1 Tabs
Mr Krinkle Tabs
South Park Song Tabs


Song lyrics



↑ Back to top | Tablatures and chords are parodies/interpretations of the original songs. You may use it for private study, scholarship, research or language learning purposes only
© 2014 AZChords.com Contact us | Privacy policy | DMCA | Add/correct tabs | Request tabs | Top 50 tabs