>
 >
Greet The Sacred Cow 1

Greet The Sacred Cow 1 Bass Tabs

Primus - Greet The Sacred Cow 1 chords, tabs, tablatures, lyrics

Guitar lessons | Add/correct | Request | Top 50 tabs Artists:  A B C D E F G H I J K L M N O P Q R S T U V W X Y Z 0-9

Greet The Sacred Cow 1 Bass Tabs – Primus

CD, Sheet music, Poster

Do you like Greet The Sacred Cow 1? Share with your friends now
Bass TabsBass Tabs v2Bass Tabs v3Bass Tabs v4Bass Tabs v5Bass Tabs v6
************************
  * Greet The Sacred Cow *
  ************************
 
  By Primus 

  From the "Antipop" Album


  I found the original version tabbed on the archive to be
 wrong (author is not listed on the original version), so 
 I thought I would correct the problem. I have included a 
 full tab and not just the corrections. All notes on the E
 and A strings are slapped, all notes on the D and G strings
 are popped. You'll have to work out the order of the riffs 
 yourselves but it's not too hard.

   h - hammer on
   p - pull off
   x - muted note
   * - natural harmonic

  
   Intro (with a flanger)
  
   x7                          x1 
  G|---------------------------|-7h8-7h8-7h8-7h8-7h8-|
  D|-5--5-5--5--5--5--5-5--5-5-|---------------------|
  A|---------------------------|---------------------|
  E|---------------------------|---------------------|
     *  * *  *  *  *  * *  * * 

   Riff 1

  G|-------5-7-------------|-------5-7--------|
  D|-----------------------|------------------|
  A|-5-x-x-----5-5-x-5h6-5-|-5-x-x-------6--5-|
  E|-----------------------|------------------|


   Variation on Riff 1

  G|-------5-7-------------|-------5-7--5h7p5--|
  D|-----------------------|-----------------7-|
  A|-5-x-x-----5-5-x-5h6-5-|-5-x-x-------------|
  E|-----------------------|-------------------|

  
   Riff 2

  G|-7--7-7--7--7--7-7--7-7-|-7h8-8-7--7h8-8-7--7h8-7h8-| 
  D|------------------------|---------------------------|
  A|------------------------|---------------------------|
  E|------------------------|---------------------------|
     *  * *  *  *  * *  * *                   

   Variation on ending of Riff 2

  G|-7--7-7--7--7--7-7--7-7-|-7h8p7--5h7p5----------------| 
  D|------------------------|------9------7-5h6p5---------|
  A|------------------------|--------------------7-5h6p5--|
  E|------------------------|---------------------------7-|
     *  * *  *  *  * *  * *

   Another Variation on Riff 2

  G|-7--7-7--7--7--7-7--7-7-|--8h10p8-7--8h10h8-7--8h10-8h10-| 
  D|------------------------|--------------------------------|
  A|------------------------|--------------------------------|
  E|------------------------|--------------------------------|
     *  * *  *  *  * *  * *
   
   Riff 3

  G|---------------------------|---------------------------|
  D|-5--5-5--5--5--5--5-5--5-5-|---------------------------|
  A|---------------------------|-5h6-6-5--5h6-6-5--5h6-5h6-|
  E|---------------------------|---------------------------|
     *  * *  *  *  *  * *  * *

   Variation on Riff 3

  G|---------------------------|----------------|
  D|-5--5-5--5--5--5--5-5--5-5-|----------------|
  A|---------------------------|-5h6-6-6-5--x-5-|
  E|---------------------------|----------------|
     *  * *  *  *  *  * *  * *

   Funky Riff

  G|----10----10-----------10----10-|
  D|--------------------------------|
  A|-7h8----7h8--77h8h9-7h8---7h8---|
  E|--------------------------------|


   Funky Riff part 2

  G|------------10--------------10----10-|
  D|-------------------------------------|
  A|-x-----x-7h8---7h8h9-9p8-7h8---7h8---|
  E|---x-x-------------------------------|


   Short Break in Funky Riff

  G|-------------------|
  D|-------------------|
  A|-7-/-12--11--10--9-|
  E|-------------------|


  I'm not sure, but you may need to play the funky riffs an
 octave lower on the E string. Whichever you feel sounds the
 best.


   Kill Sacred Cow Riff
  
  G|----------------------5h7-------7-x-6-x-5-x-4-x-|
  D|------------------------------------------------|
  A|-5--x-x-5-x-5-x-5-x-x-----5-x-x-----------------|
  E|------------------------------------------------|


   Final Riff (with flanger) -fade out-
   x3                          x1
  G|---------------------------|-7h8-8-7h8-8-7h8-8-7h8-8-7h8-7h8-|
  D|-5--5-5--5--5--5--5-5--5-5-|---------------------------------|
  A|---------------------------|---------------------------------|
  E|---------------------------|---------------------------------|
     *  * *  *  *  *  * *  * *
  
    
  

   Now here is the original version (author unknown)

   _______________________________________________________________

  greet the sacred cow

  primus

  antipop

  taken from their cheezy primus page


   This part's harmonics:
     h h  h  h   h  h  h  h  h  h
  
  G|--------------------------------|-------------------|
  D|-12------12-----12----12----12--|-12h13p12-12h13p12-|
  A|---12-12-----12----12----12-----|-------------------|
  E|--------------------------------|-------------------|
                                     -just make your own
                                      descending scale


    The heavier part.
    (slap & pop)"Line 'em up now..."

   G|--------6-7-------------6-7-r--|
   D|*-----------------------------*|
   A|*-5-x-x-----5h6-x-5h6-5-------*|
   E|-------------------------------|





Comments


Popular Primus tabs & chords
American Life Bass Tabs
Cpt Shiner 1 Bass Tabs
Electric Uncle Sam 2 Bass Tabs
Lacquer Head Bass Tabs
Sgt. Baker 1 Bass Tabs
Those Damned Blue Collar Tweekers 2 Bass Tabs
Tippy Toes Bass Tabs
Too Many Puppies 5 Bass Tabs
Over The Falls Drum Tabs
Wynona's Big Brown Beaver Tabs


Song lyrics



↑ Back to top | Tablatures and chords are parodies/interpretations of the original songs. You may use it for private study, scholarship, research or language learning purposes only
© 2014 AZChords.com Contact us | Privacy policy | DMCA | Add/correct tabs | Request tabs | Top 50 tabs