>
 >
Glass Sandwich

Glass Sandwich Guitar Tabs

Primus - Glass Sandwich chords, tabs, tablatures, lyrics

Guitar lessons | Add/correct | Request | Top 50 tabs Artists:  A B C D E F G H I J K L M N O P Q R S T U V W X Y Z 0-9

Glass Sandwich Guitar Tabs – Primus

CD, Sheet music, Poster

Do you like Glass Sandwich? Share with your friends now
Bass TabsBass Tabs v2Bass Tabs v3TabsTabs v2
Gtr I
||---------|--------|--------|-------||
||o--------|--------|--------|------o||
||---------|--------|--------|-------||
||---------|--------|--------|-------||
||o--------|--------|--------|------o||
||---------|--------|--------|-------||


   Guitar Enters
                                                                  3x
||----------------|---------------|---------------|-----------------||
||o-----4-4-4-4-4-|-----4-4-4-4-4-|-----4-4-4-4-4-|-----4-4-4-4-4--o||
||--x-x-8-8-8-8-8-|-x-x-8-8-8-8-8-|-x-x-8-8-8-8-8-|-x-x-8-8-8-8-8---||
||--x-x-7-7-7-7-7-|-x-x-7-7-7-7-7-|-x-x-7-7-7-7-7-|-x-x-7-7-7-7-7---||
||o-x-x-6-6-6-6-6-|-x-x-6-6-6-6-6-|-x-x-6-6-6-6-6-|-x-x-6-6-6-6-6--o||
||----------------|---------------|---------------|-----------------||
                                                                  4x
||----------------|---------------|---------------|-----------------||
||o---------------|---------------|---------------|----------------o||
||--x-x-8-8-8-8-8-|-x-x-8-8-8-8-8-|-x-x-8-8-8-8-8-|-x-x-8-8-8-8-8---||
||--x-x-7-7-7-7-7-|-x-x-7-7-7-7-7-|-x-x-7-7-7-7-7-|-x-x-7-7-7-7-7---||
||o-x-x-6-6-6-6-6-|-x-x-6-6-6-6-6-|-x-x-6-6-6-6-6-|-x-x-6-6-6-6-6--o||
||----------------|---------------|---------------|-----------------||
                                                                  4x
||----------------|---------------|---------------|-----------------||
||o---------------|---------------|---------------|----------------o||
||--x-x-----------|-x-x-----------|-x-x-----------|-----------------||
||--x-x-7-7-7-7-7-|-x-x-7-7-7-7-7-|-x-x-7-7-7-7-7-|-x-x-7-7-7-7-7---||
||o-x-x-6-6-6-6-6-|-x-x-6-6-6-6-6-|-x-x-6-6-6-6-6-|-x-x-6-6-6-6-6--o||
||----------------|---------------|---------------|-----------------||

|-------------|-------------|-------------|-------------|
|-1-2-3-4-5-6-|-5-4-3-2-1-0-|-1-2-3-4-5-6-|-5-4-3-2-1-0-|
|-------------|-------------|-------------|-------------|
|-------------|-------------|-------------|-------------|
|-------------|-------------|-------------|-------------|
|-------------|-------------|-------------|-------------|

|-------------|-------------|-------------|------------|
|-2-3-4-5-6-7-|-6-5-4-3-2-1-|-2-3-4-5-6-5-|-4-3-2-1-0--|
|-------------|-------------|-------------|------------|
|-------------|-------------|-------------|------------|
|-------------|-------------|-------------|------------|
|-------------|-------------|-------------|------------|

|------------|-------------|-------------|----------|
|-1--2-3-4-5-|-4-3-2-1-0-1-|-2-3-4-5-6-7-|-8-7-6----|
|------------|-------------|-------------|----------|
|------------|-------------|-------------|----------|
|------------|-------------|-------------|----------|
|------------|-------------|-------------|----------|

|------------|------------|----------|-----------|
|-1--2-3-4-5-|-6--5-4-3-2-|-2--3--4--|-5--4-3-2--|
|------------|------------|----------|-----------|
|------------|------------|----------|-----------|
|------------|------------|----------|-----------|
|------------|------------|----------|-----------|

|----------17-------17-|-------17-------17-|-(17)----------|
|-----(18)----18-------|-18-------18-------|-----------18--|
|-/18------------18----|----18-------18----|-------18------|
|----------------------|-------------------|---------------|
|----------------------|-------------------|---------------|
|----------------------|-------------------|---------------|
 
|-----------|---------------|---------------|--------|
|-(18)------|----------0----|---------------|--------|
|-----------|-18----15---15-|-(14)s8----(8)-|--------|
|-----------|---------------|---------------|--------|
|-----------|---------------|---------------|--------|
|-----------|---------------|---------------|--------|

|------------|----------------|-------------|----------------|
|------------|----------------|-------------|----------------|
|----8-8---8-|-8---11-11---14-|-14----11----|---14-11S=20----|
|----7-7---7-|-7---10-10---13-|-13----10----|---13-10-----19-|
|------------|----------------|-------------|----------------|
|------------|----------------|-------------|----------------|

|---------------|-------------17-|-17-20-20\-|
|---------------|-------16-16----|-----------|
|-----17-----17-|-20--x----------|-----------|
|-----16--16----|-19--x----------|-----------|
|-20------------|----------------|-----------|
|---------------|----------------|-----------|

||----------------|---------------|---------------|-----------------||
||o---------------|---------------|---------------|----------------o||
||--x-x-8-8-8-8-8-|-x-x-8-8-8-8-8-|-x-x-8-8-8-8-8-|-x-x-8-8-8-8-8---||
||--x-x-7-7-7-7-7-|-x-x-7-7-7-7-7-|-x-x-7-7-7-7-7-|-x-x-7-7-7-7-7---||
||o-x-x-6-6-6-6-6-|-x-x-6-6-6-6-6-|-x-x-6-6-6-6-6-|-x-x-6-6-6-6-6--o||
||----------------|---------------|---------------|-----------------||
                                                                 4x
||----------------|---------------|---------------|-----------------||
||o---------------|---------------|---------------|----------------o||
||--x-x-----------|-x-x-----------|-x-------------|-----------------||
||--x-x-7-7-7-7-7-|-x-x-7-7-7-7-7-|-x-x-7-7-7-7-7-|-x-x-7-7-7-7-7---||
||o-x-x-6-6-6-6-6-|-x-x-6-6-6-6-6-|-x-x-6-6-6-6-6-|-x-x-6-6-6-6-6--o||
||----------------|---------------|---------------|-----------------||
                                                                  4x
||----------------|---------------|---------------|-----------------||
||o---------------|---------------|---------------|----------------o||
||--x-x-8-8-8-8-8-|-x-x-8-8-8-8-8-|-x-x-8-8-8-8-8-|-x-x-8-8-8-8-8---||
||--x-x-7-7-7-7-7-|-x-x-7-7-7-7-7-|-x-x-7-7-7-7-7-|-x-x-7-7-7-7-7---||
||o-x-x-6-6-6-6-6-|-x-x-6-6-6-6-6-|-x-x-6-6-6-6-6-|-x-x-6-6-6-6-6--o||
||----------------|---------------|---------------|-----------------||

 Up One Octave Notes
|-------------------|-------------------|
|-13-14-15-16-17-18-|-17-16-15-14-13-12-|
|-------------------|-------------------|
|-------------------|-------------------|
|-------------------|-------------------|
|-------------------|-------------------|

|-------------------|-------------------|
|-13-14-15-16-17-18-|-19-18-17-16-15-14-|
|-------------------|-------------------|
|-------------------|-------------------|
|-------------------|-------------------|
|-------------------|-------------------|

|-------------------|-------------------|
|-14-15-16-17-18-17-|-16-15-14-13-12-13-|
|-------------------|-------------------|
|-------------------|-------------------|
|-------------------|-------------------|
|-------------------|-------------------|

|-------------------|-------------------|
|-14-15-16-17-18-19-|-18-17-16-15-14-13-|
|-------------------|-------------------|
|-------------------|-------------------|
|-------------------|-------------------|
|-------------------|-------------------|

|-----------------|---------------|-----------------|-----------------|
|13-14-15-16-17-16|15-14--13-12-11|14-15-16-17-18-17|16-15-14-13-12-13|
|-----------------|---------------|-----------------|-----------------|
|-----------------|---------------|-----------------|-----------------|
|-----------------|---------------|-----------------|-----------------|
|-----------------|---------------|-----------------|-----------------|

|-------------------|-------------------|
|-14-15-16-17-18-19-|-18-17-16-15-14-13-|
|-------------------|-------------------|
|-------------------|-------------------|
|-------------------|-------------------|
|-------------------|-------------------|

|-------------------|-------------------|
|-14-15-16-17-18-17-|-16-15-14-13-12-13-|
|-------------------|-------------------|
|-------------------|-------------------|
|-------------------|-------------------|
|-------------------|-------------------|

Guitar Solo
|----------------|----------|-------------|--------------------|
|----------------|----------|-------------|--------------12s19-|
|----------------|----------|-------------|--------12s19-------|
|-10b11r=9-8-7-8-|-7--x/----|----10-7-10--|-12b14r=============|
|----------------|----------|-------------|--------------------|
|----------------|----------|-------------|--------------------|

|----------------|--------------|----------------|-------|
|----15-16-17-15-|-/15--15\-----|----13-12-11-10-|-9-----|
|----------------|--------------|----------------|-------|
|----------------|--------------|----------------|-------|
|----------------|--------------|----------------|-------|
|----------------|--------------|----------------|-------|

|----------------10----|-----------|------------|----------|
|----------------------|-----------|------------|----------|
|----12h13p12h13----14-|-----------|------------|--------x-|
|----------------------|-12--7--8--|-10--9-8-7--|----------|
|----------------------|-----------|------------|----------|
|----------------------|-----------|------------|----------|

|------------------|-----------|---------------------|-----------|
|------------------|-----------|---12-(12)-13-13b15r=|=(13)--13--|
|------------9-----|-----------|---------------------|-----------|
|-12s10----9---10\-|-10\-------|-9-------------------|-----------|
|-------10---------|-10\-------|---------------------|-----------|
|------------------|-----------|---------------------|-----------|

|-----------/13\--|----------------------|
|-13--13-13-------|-13-13----------------|
|-----------------|-------13b13.5r(13)---|
|-----------------|----------------------|
|-----------------|----------------------|
|-----------------|----------------------|

|---------------|-11--11b11.5r=(11)--|------------|
|---------------|--------------------|------------|
|---------------|--------------------|----9s=11---|
|-9b10r=(9)-----|--------------------|------------|
|---------------|--------------------|------------|
|---------------|--------------------|------------|

|----15b17.5r=15--|---21b24===(21)--|-(21)--------|------|
|-----------------|---------------------|-------------|------|
|-----------------|---------------------|-------------|------|
|-----------------|---------------------|-------------|------|
|-----------------|---------------------|-------------|------|
|-----------------|---------------------|-------------|------|





Comments


Popular Primus tabs & chords
Arnie Bass Tabs
Dirty Drowning Man 2 Bass Tabs
Master Of Puppets 5 Bass Tabs
On The Tweek Again Bass Tabs
Power Mad 1 Bass Tabs
Southbound Pachydermb Bass Tabs
Tommy The Cat Bass Tabs
Mama Didnt Raise No Fool 1 Tabs
My Name Is Mud 1 Tabs
Over The Electric Grapeine Tabs


Song lyrics



↑ Back to top | Tablatures and chords are parodies/interpretations of the original songs. You may use it for private study, scholarship, research or language learning purposes only
© 2014 AZChords.com Contact us | Privacy policy | DMCA | Add/correct tabs | Request tabs | Top 50 tabs