» » »

Glass Tabs (ver.1)

Artists:  A B C D E F G H I J K L M N O P Q R S T U V W X Y Z # 

Glass Tabs (ver.1)

Primus
Rating:
0/5 (0 votes)

Hard to play? Try these video lessons and learn fast.
                Bass tab for Primus' Glass Sandwich 

 PRIMUS - Glass Sandwich 






Verse :
|---------------|
|---------------|
|-0-3-6-2-0-3-0-|
|---------------|

Every once in a while he does a turn around which sounds like this :

|---------------------|
|---------------------|
|-0-3-6-2-0-3-0--5-3-2|
|---------------------|

Chorus :
|---------|---------|
|---------|---------|
|-3---3---|-4---4---|
|---4---4-|---5---5-|
            
Hard to play? Try these video lessons and learn fast. | Correct




comments powered by Disqus
↑ Back to top | Tablatures and chords are parodies/interpretations of the original songs. You may use it for private study, scholarship, research or language learning purposes only