» » »

Fisticufs Bass tabs (ver.1)

Artists:  A B C D E F G H I J K L M N O P Q R S T U V W X Y Z # 

Fisticufs Bass tabs (ver.1)

Primus
Rating:
0/5 (0 votes)

Hard to play? Try these video lessons and learn fast.
                all ive figured out is the intro which is nothing like anyone elses so its probably 
wrong, but i thought id try...

g|----------------------------   
d|----------------------------    
a|5--5--5-3-0-3-5-3-0-3-------    
e|---------------------4-4----   
        

g|----------------------------   
d|----------------------------    
a|5--5--5-3-0-3-5-3-0-3-------    
e|---------------------4-4----

g|----------------------------   
d|----------------------------    
a|5--5--5-3-0-3-5-3-0-3-------    
e|---------------------4-4----

g|------------  
d|------------    
a|5--5--5-3-0-    
e|------------
then it breaks into the rest actuall song, or which i have only some basic ideas but 
not sure enough to put down as a tab.
            
Hard to play? Try these video lessons and learn fast. | Correct




comments powered by Disqus
↑ Back to top | Tablatures and chords are parodies/interpretations of the original songs. You may use it for private study, scholarship, research or language learning purposes only