>
 >
Fish On 5

Fish On 5 Bass Tabs

Primus - Fish On 5 chords, tabs, tablatures, lyrics

Guitar lessons | Add/correct | Request | Top 50 tabs Artists:  A B C D E F G H I J K L M N O P Q R S T U V W X Y Z 0-9

Fish On 5 Bass Tabs – Primus

CD, Sheet music, Poster

Do you like Fish On 5? Share with your friends now
Bass TabsBass Tabs v2Bass Tabs v3Bass Tabs v4Bass Tabs v5
#h# = hammer-on
#p# = pull-off
/ = slide up
\ = slide down (the more / or \ there are, the longer the slide)
* = see foot note
#^ = bend
Trem. Pick = play the note as fast as possible, as many times as possible before the 
note comes up

||---------||
||---------||
||---*/*---|| repeat everything on the same line
||---------|| before this symbol
||---------||
||---------||

||-------------------------------------------------||
||-------------------------------------------------||
||*----when you get to the symbol on the right----*||
||*---- go back to the symbol on the left---------*||
||-------------------------------------------------||
||-------------------------------------------------||

Intro:
C||--------------------------|---------|-----------------------------|-----9-------||
G||-----9-9/11-9h11p9--------|---9---9-|-----9-9/11-9h11p9-----------|---9-----9---||
D||---7---------------11p9-7-|-7-------|---7---------------12p11p9\7-|-7-----7---7-||
A||-0------------------------|-----0---|-0---------------------------|-------0-0-0-||
E||--------------------------|---------|-----------------------------|-------------||
B||--------------------------|---------|-----------------------------|-------------||

C||----------------------14-|-14-12-0-|-11-12-14-12-11*(12)-14-|-14-12-0-|-11-12-14-12-11\9--9\-||
G||-9-9/11-9-11-12-11-12-0--|-0--0----|-0-----------0-------0--|-0--0----|-0--0--0--0--0-----0--||
D||-------------------------|---------|------------------------|---------|----------------------||
A||-------------------------|---------|------------------------|---------|----------------------||
E||-------------------------|---------|------------------------|---------|----------------------||
B||-------------------------|---------|------------------------|---------|----------------------||
                                                      *tremolo

C||------9--9-9--9---|------9-9---9-----9-0-12---|-11-12-14-12-11*(12)-11-|-11-12-0-11-12-14-12-||
G||-/7-------------2/|/7----------------7-0----0-|-0--0--0--0--0-------0--|-0--0----0--0--0--0--||
D||--0-0-----------0-|----0-----0---0-0----------|------------------------|---------------------||
A||------------------|---------------------------|------------------------|---------------------||
E||------------------|---------------------------|------------------------|---------------------||
B||------------------|---------------------------|------------------------|---------------------||
                                                                 *tremolo

C||-11--11--11-----------|-11-----11-----------------|--------------|--------------------------||
G||-------------12p11-11-|-----------12p11-11-9/11\9-|--------------|--------------------------||
D||----------------------|---------------------------|-9--11-9--9\4-|-9--9-11p9-7/9----4--(4)/-||
A||----------------------|---------------------------|--------------|--------------------------||
E||----------------------|---------------------------|--------------|--------------------------||
B||-0---0---0---0-----0--|-0------0--0-----0--0------|-0--0--0------|-0--0-0----0------0-------||

C||-----------------------|----------------|----------|-----------|------||
G||-----------------------|----------------|----------|------11///|///14-||
D||-9--11--12p11-9\4--(4)/|/9--9--11p9-7/9-|----------|------11///|///14-||
A||-----------------------|----------------|----------|------9////|///12-||
E||-----------------------|----------------|----------|-----------|------||
B||-0--0---0-----0--------|-0--0--0----0---|----------|-----------|------||
                                                             w/distortion

C||--------------------|--------------------|--------------------|-------------------||
G||--------------------|--------------------|--------------------|--------------11///||
D||--------------------|--------------------|--------------------|--------------11///||
A||--------------------|--------------------|--------------------|--------------9////||
E||--------------------|--------------------|--------------------|-------------------||
B||--------------------|--------------------|--------------------|-------------------||

1st Verse: Bass Fig. 1
C||---------------------|--------------------|--------------------|
G||---------------------|--------------------|--------------------|
D||---------------------|--------------------|--------------------|
A||---------------------|--------------------|--------------------|
E||---------------------|--------------------|--------------------|
B||---------------------|--------------------|--------------------|

C||--------------------|--------------------|--------------------|--------------------|
G||--------------------|--------------------|--------------------|--------------------|
D||--------------------|--------------------|--------------------|--------------------|
A||--------------------|--------------------|--------------------|--------------------|
E||--------------------|--------------------|--------------------|--------------------|
B||--------------------|--------------------|--------------------|--------------------|

         (end fig. 1)    *Fig. 2 starts
C||--------------------|-------------------------|---------------------||
G||-----------------12/|/14----------------------|------------------12/||
D||-----------------12/|/14-----------14---------|-------------14---12/||
A||-----------------10/|/12--12-12-12----12---12-|-12-12-12-12------10/||
E||--------------------|-------------------------|---------------------||
B||--------------------|-------------------------|---------------------||
                           *play w/slight variations ad lib when repeated or recalled (throughout)

C||---------------------------|---------------------|-------------------------------||
G||/14------------------------|---------------------|-------------------------------||
D||/12---------------------14/|/17------17\\14---12/|/14----------------------------||
A||/12------------14----------|------------------12/|/14---------------14-----------||
E||------12-12-12----12----12/|/15------15\\12---10/|/12--12--12-12-12----12-----12-||
B||---------------------------|---------------------|-------------------------------||

                                                                                   (end 
2)
C||--------------------------||----------------------------|----------------------------------||
G||-----------------------12/||/14-------------------------|-------------------------------12/||
D||----14----------14-----12/||/14-------------14----------|----16----16----16----16----16-12/||
A||-12----12-12-12--------10/||/12-12-12-12-12----12-12-12/|/15----15----15----15----15----10/||
E||--------------------------||----------------------------|----------------------------------||
B||--------------------------||----------------------------|----------------------------------||

2nd Verse: w/fig.1 (2 times)                              |           bass fill 2        
    |
C||------------------|-----------------|-----------------|----------------------------------||
G||------------------|-----------------|-----------------|----------------------------------||
D||------------------|-----------------|-----------------|----16----16----16----16----16----||
A||------------------|-----------------|-----------------|/15----15----15----15----15----12\||
E||------------------|-----------------|-----------------|----------------------------------||
B||------------------|-----------------|-----------------|----------------------------------||

  |               Fig. 3               |
C||-------------------|----------------|-------------------|---------------||
G||-------------------|----------------|-------------------|------------12/||
D||-------------------|----------------|-------------------|------------12/||
A||\9-----------------|-------------12\|\9-----------------|------------10/||
E||-----8p0-8---8p0-8-|-8p0-8---8p0----|-----8p0-8---8p0-8-|-8p0-8p0-------||
B||-------------------|----------------|-------------------|---------------||

Interlude: w/Fig. 2

Solo:
C||------|------||-------|------|------|-------|----------|------------|--------|-------||
G||------|------||-------|------|------|-------|----------|------------|(18)*\\\|(8)*\\\||
D||------|------||-------|------|------|-------|----------|------------|--------|-------||
A||\9----|------||-------|------|------|-------|----------|------------|--------|-------||
E||------|------||-------|------|------|-------|----------|------------|--------|-------||
B||------|------||---0---|------|-1----|(1)////|(5)//(9)//|(12)//(16)//|--------|-------||
                                                                                         
                                        *Trem. Pick

C||------------------------|------------------------|----------------------||
G||--4-4-3-3-1-1-----------|--------1-1-1-1-2-2-1-1-|-4-4-3-3-1-1----------||
D||*-------------0-0-1---2-|-3-3-4------------------|-------------0-0-1--2-||
A||*-----------------------|------------------------|----------------------||
E||------------------------|------------------------|----------------------||
B||------------------------|------------------------|----------------------||
   ___________________ __________________
   | 1.2.3.                      | |4.
C||------------------||-----------------||--------------------||
G||-------1-1-3-3-4--||-------1-1-3-3-4/||--------------------||
D||-3--4------------*||-3--4------------||*-------------------||
A||-----------------*||-----------------||*-6-6-8-8-6---------||
E||------------------||-----------------||------------4---5p4-||
B||------------------||-----------------||--------------------||

                              _______________ _______________
                              |1.           | |2.
C||--------|------------------|-------------||--------------|--------------------||
G||--------|------------------|-------------||--------------|--------------------||
D||--------|------------------|------------*||--------------|--------------------||
A||--------|-6-6-8-8-6--------|------------*||--------------|-6-6-8-8-6-6--------||
E||--------|-----------4--5p4-|-------7\----||-------7\-----|-------------4--5p4-||
B||--------|------------------|-4--5-----0--||-4--5-----2-2-|--------------------||

C||-------------|--------------------|---------------|--------------------|--------||
G||-------------|--------------------|---------------|--------------------|--------||
D||-------------|--------------------|---------------|--------------------|--------||
A||-/11-----/11-|-6-6-8-8-6-6--------|---------------|-6-6-8-8-6-6--------|--------||
E||-------------|-------------4--5p4-|-------7\------|-------------4--5p4-|--------||
B||-------------|--------------------|-4--5----2---2-|--------------------|--------||

C||--------------------|------------|-------------------------------------||
G||--------------------|------------|-------------------------------------||
D||--------------------|------------|-10-12-12-10-12-12-10-12-12-10-12-12-||
A||-6-6-8-8-6-6--------|------------|-------------------------------------||
E||-------------4--5p4-|-------7\/4-|-------------------------------------||
B||--------------------|-4--5-------|-------------------------------------||

C||-----------------------||
G||-----------------------||
D||-10-12-12-10\9---------||
A||---------------11--/11-||
E||-----------------------||
B||-----------------------||

C||--------------------------------|-------------|----------|---------|--------------||
G||--------------------------------|-------------|----------|---------|--------------||
D||-10-12-12-10-12-12-11-11-11\(6)\|-------------|----------|---------|--------------||
A||--------------------------------|4\-----------|----------|---------|--------------||
E||--------------------------------|---/5--/5--3-|----------|---------|--------------||
B||--------------------------------|-------------|-2----2-0-|---------|-2----2-0--2//||

C||---------------|---------------|---------------|--------------|-------------||
G||---------------|---------------|---------------|--------------|-------------||
D||---------------|---------------|---------------|--------------|-------------||
A||---------------|---------------|---------------|--------------|-------------||
E||---------------|---------------|---------------|--------------|-------------||
B||/14^-----(14)\\|\2----2--0--/9-|---------------|-2----2--0-2//|/14^---(14)\\||
                                                    w/dist.


C||----------------------|--------------|--------------|-----------------||
G||-/12---12*-----12*\4*/|12*\4*/14*\4*/|17*\5*/18*\6*/|18*\6*/16-16-14\\||
D||-----------10*--------|--------------|--------------|-----------------||
A||----------------------|--------------|--------------|-----------------||
E||----------------------|--------------|--------------|-----------------||
B||----------------------|--------------|--------------|-----------------||
            *Trem. Pick

C||--------------------------------||---------||---------||-------------------||
G||--------------------------------||---------||---------||-------------------||
D||-9--9--8--8--6------------------||---*/*---||---*/*---||-9--9--8--8--6-----||
A||--------------------------------||---------||---------||-------------------||
E||------------------------7--7----||---------||---------||-----------------0-||
B||------------------6--6--------6-||---------||---------||-----------------0-||
                                                                        w/heavy dist.

C||--------------------|---------|---------|--------|------|---------|---------|--------||
G||--------------------|---------|---------|-----12/|/14---|---------|---------|-----12/||
D||--------------------|---------|---------|-----12/|/14---|---------|---------|-----12/||
A||--------------------|---------|---------|-----10/|/12---|---------|---------|-----10/||
E||--------------------|---------|---------|--------|------|---------|---------|--------||
B||--------------------|---------|---------|--------|------|---------|---------|--------||

Outro: Fig. 2 until end





Comments


Popular Primus tabs & chords
Cpt Shiner Bass Tabs
Devil Went Down To Georgia Bass Tabs
Mr. Knowitall 1 Bass Tabs
Scissor Man Bass Tabs
The Family And The Fishing Net 1 Bass Tabs
The Final Voyage Of The Liquid Sky Bass Tabs
Over The Falls 1 Tabs
The Pressman Tabs
Those Damned Blue-Collar Tweakers Tabs
Too Many Puppies Tabs


Song lyrics



↑ Back to top | Tablatures and chords are parodies/interpretations of the original songs. You may use it for private study, scholarship, research or language learning purposes only
© 2014 AZChords.com Contact us | Privacy policy | DMCA | Add/correct tabs | Request tabs | Top 50 tabs