>
 >
Fish On 2

Fish On 2 Bass Tabs

Primus - Fish On 2 chords, tabs, tablatures, lyrics

Guitar lessons | Add/correct | Request | Top 50 tabs Artists:  A B C D E F G H I J K L M N O P Q R S T U V W X Y Z 0-9

Fish On 2 Bass Tabs – Primus

CD, Sheet music, Poster

Do you like Fish On 2? Share with your friends now
Bass TabsBass Tabs v2Bass Tabs v3Bass Tabs v4Bass Tabs v5
primus- fish on

Intro.

G-----9-11--9h11p9\7-------------9----9----|
D---7----------------9p7------7------------|
A-0--------------------------------0-------|
B------------------------------------------|

G-----9-11--9h11p9\7-------------9--14---------|
D---7----------------9p7------7--------14------|
A-0---------------------------------------12---|
B----------------------------------------------|

G-----9-11-9-11-12-11-12-19--19-17-16-17-19-17p16h17p16h17p16--|
D---7----------------------------------------------------------|
A-0------------------------------------------------------------|
B--------------------------------------------------------------|

G---19--19-17-16-17-19-17\14----------------------14-14-14-14--|
D----------------------------(19)\12---7-/-12--12--------------|
A--------------------------------------------------------------|
B--------------------------------------------------------------|

G--------------14-14-14----14------14--19-17-16-17-19-17-------|
D--7-/-12--12-----------12-----12--12--------------------------|
A--------------------------------------------------------------|
B--------------------------------------------------------------|

G--17p16h17p16p17p16--19-19-17-16-17-19-17-16---16---16--------|
D--------------------------------------------------------------|
A--------------------------------------------------------------|
B-------------------------------------------0----0----0--------|

G---12p-11--11--16-------16--12--11--11--9--11--9--------------|
D--------------------------------------------------9--11--9-r--|
A--------------------------------------------------------------|
B----0-------0---0--------0---0---0--(0)-0--(0)-0--0---0--0-r--|

G---------------------------------------------------------------|
D--9--4-/-9-----9--11--9--7--9--4-/-9--11--12\(11)-11-\---------|
A---------------------------------------------------------------|
B--0--0---0-----0---0--0--0--0--0---0---0---0-------0-----------|

G--------------------------------------------------------------|
D--4-/--9---9--11--9--7--9-------------------------------------|
A--------------------------------------------------------------|
B--0----0---0---0--0--0--0--(0)--------------------------------|
FiSh On!





Comments


Popular Primus tabs & chords
Here Come The Bastards 4 Bass Tabs
Jerry Was A Race Car Driver 1 Bass Tabs
Natural Joe 3 Bass Tabs
Shake Hands With Beef Bass Tabs
South Park Theme 2 Bass Tabs
Southbound Pachyderm 5 Bass Tabs
Spagetti Western Bass Tabs
Through The Electric Grapevine Bass Tabs
Mr Knowitall Drum Tabs
Scissor Man Tabs


Song lyrics



↑ Back to top | Tablatures and chords are parodies/interpretations of the original songs. You may use it for private study, scholarship, research or language learning purposes only
© 2014 AZChords.com Contact us | Privacy policy | DMCA | Add/correct tabs | Request tabs | Top 50 tabs