» » »

Duchess And Theverbial Mind Spread Bass tabs (ver.1)

Artists:  A B C D E F G H I J K L M N O P Q R S T U V W X Y Z # 

Duchess And Theverbial Mind Spread Bass tabs (ver.1)

Primus
Rating:
0/5 (0 votes)

Hard to play? Try these video lessons and learn fast.
                Duchess and the Proverbial Mind Spread
Primus

main riff: (Riff A)
G-|--------5---------5--8--5---5---5---------5--8--5---5---5---5-----------|
D-|o-0h5h7-----0h5h7---------7---5-----0h5h7---------7---7---5------------o|
A-|o----------------------------------------------------------------------o|
E-|------------------------------------------------------------------------|

at about 1:00
G-|--------5---------5--8--5---5---5---------5--8--5---10------------5-----|
D-|o-0h5h7-----0h5h7---------7---5-----0h5h7---------------7-7-7--5-------o|
A-|o----------------------------------------------------------------------o|
E-|------------------------------------------------------------------------|

at about 1:05 (not sure, curse those drums)
G-|--------5---------5--8--5---5---5---------5--8--------------------------|
D-|o-0h5h7-----0h5h7---------7---5-----0h5h7-------6-5-5-5-5-5-5----------o|
A-|o----------------------------------------------------------------------o|
E-|------------------------------------------------------------------------|

and at about 2:46                               [-     *      -]
G-|--------5---------5--8--5---5---5---------5-----16-16-16-\--------------|
D-|o-0h5h7-----0h5h7---------7---5-----0h5h7------------------------------o|
A-|o----------------------------------------------------------------------o|
E-|------------------------------------------------------------------------|
* = triplets.. dont know how many 16 or if it is 16.
            
Hard to play? Try these video lessons and learn fast. | Correct




comments powered by Disqus
↑ Back to top | Tablatures and chords are parodies/interpretations of the original songs. You may use it for private study, scholarship, research or language learning purposes only