» » »

Duchess And The Proverbial Mind Spread Bass tabs (ver.2)

Artists:  A B C D E F G H I J K L M N O P Q R S T U V W X Y Z # 

Duchess And The Proverbial Mind Spread Bass tabs (ver.2)

Primus
Rating:
0/5 (0 votes)

Hard to play? Try these video lessons and learn fast.
                ----------------------------------------------------------------------------
	     Duchess and the proverbial mind spread - Primus
----------------------------------------------------------------------------


Tuning:
       .                    .                         .
G|-----5-]-----5-8-5--------5----5-8-5----------------5---------------------|
D|--/7---]--/7-------7-5-/7---/7-------5h7-5-5h7-5-/7-----------------------|
A|-------]------------------------------------------------------------------|
E|-------]------------------------------------------------------------------|
Fill to change to lower riff
G|--------5-8-5-------------------------------------------------------------|
D|-----/7-------5-5---------------------------------------------------------|
A|--------------------------------------------------------------------------|
E|--------------------------------------------------------------------------|
lower riff, same as above-1 octave below
G|------------------------------------------------------[-------------------|
D|-------.-----------------.-------------------------.--[-------------------|
A|-------3----3-6-3--------3----3-6-3----------------3--[------3-6-3--------|
E|----/5---/5-------5-3-/5---/5-------3h5-3-3h5-3-/5----[---/5-------3-3----|
Pre verse 2 riff
G|-----5----5-8-5--------5----5-8-5-12-12--------5----5-8-5--------5-----5--|
D|--/7---/7-------7-5-/7---/7-------------0-0-/7---/7-------7-5-/7----/7----|
A|--------------------------------------------------------------------------|
E|--------------------------------------------------------------------------|

G|--8-7-5-7-5---5-----------------------------------------------------------|
D|------------7---7-5-------------------------------------------------------|
A|--------------------------------------------------------------------------|
E|--------------------------------------------------------------------------|
Drum solo
G|---------------------------------------------------------------------------|
D|--------------------5---5---5---5---5---5---5---5-/17~~~~~~~~~-------------|
A|---------------------------------------------------------------------------|
E|--3-3-3-3-3-3-3-3-3---3---3---3---3---3---3---3----------------------------|


| /  slide up
| \  slide down
| h  hammer-on
| p  pull-off
| ~  vibrato
| +  harmonic
| x  Mute note
===============================================================================
            
Hard to play? Try these video lessons and learn fast. | Correct




comments powered by Disqus
↑ Back to top | Tablatures and chords are parodies/interpretations of the original songs. You may use it for private study, scholarship, research or language learning purposes only