» » »

Duchess And The Proverbial Mind Spread Tabs (ver.1)

Artists:  A B C D E F G H I J K L M N O P Q R S T U V W X Y Z # 

Duchess And The Proverbial Mind Spread Tabs (ver.1)

Primus
Rating:
4/5 (2 votes)

Tabs too difficult? Try these video lessons and learn fast.
                -------------------------------------------------------------------------------
-------------------------------------------------------------------------------

Tuning:Standard

e|-5--|      
B|-5--|
G|-5--|  *i didn't feel like counting how many times he does this
D|----|   so just keep doing it until it comes to the melody part
A|----|
E|----|

e|--------------------------------------------------------------------------|
B|--------------------------------------------------------------------------|
G|---------------------------------------------------------12-12------------|
D|---------7-6---7-6---3-5--------------------7-6---7-9-12------------------|
A|---5-7-------------------7-6-----------5-7--------------------------------|
E|-5----------------------------------5-------------------------------------|

e|--------------------------------------------------------------------------|
B|-----10-9-10-9-8---------10-9---9-10-12-10-10-----------------------------|
G|--7-9----9--8-7-6-----7-9-------------------------------------------------|
D|-7-------------------7----------------------------------------------------|
A|--------------------------------------------------------------------------|
E|--------------------------------------------------------------------------|

e|-3-|
B|-3-|
G|-3-| * I didn't feel like counting this part 
D|---|    either, but you can figure it out
A|---|
E|---|

   solo: do tremelo picking for this

e|-15\13/15\13/15-13-12-9/------|
B|-------------------------1----|
G|------------------------------|
D|------------------------------|
A|------------------------------|
E|------------------------------|

e|-5-5-5---15-17-|
B|-5-5-5---15-17-|
G|-5-5-5---------| *do this part a few times
D|---------------|
A|---------------|
E|---------------|

e|-3-|
B|-3-|
G|-3-|
D|---|
A|---|
E|---|

note: you should be able to put this together pretty easily.its basically in the
right order and I know its mostly correct because i watched ler play it
live on the "Animals Should Not Try To Act Like People" dvd.
            
Tabs too difficult? Try these video lessons and learn fast.


comments powered by Disqus
↑ Back to top | Tablatures and chords are parodies/interpretations of the original songs. You may use it for private study, scholarship, research or language learning purposes only