>
 >
Dmv

Dmv Bass Tabs

Primus - Dmv chords, tabs, tablatures, lyrics

Guitar lessons | Add/correct | Request | Top 50 tabs Artists:  A B C D E F G H I J K L M N O P Q R S T U V W X Y Z 0-9

Dmv Bass Tabs – Primus

CD, Sheet music, Poster

Do you like Dmv? Share with your friends now
Bass TabsBass Tabs v2Bass Tabs v3Bass Tabs v4TabsTabs v2Tabs v3
Artist- Primus
Album- Pork Soda
Song- DMV
Transcribed for a 5 string (whole song is tapping)
Intro
G|-------------19----------18-18-|-------------19----------18-18-18-18--18-||
D|----18----------18-------------|----18----------18-------------17-17--17-||
A|-------17----------17----------|-------17----------17--------------------|| x2
E|-------------------------------|-------------------------------16\15-----||
B|-15-------15----------15-------|-15-------15----------15-----------------||

G|-------------19----------18-18-18--|-----------19---------18-18--18-||
D|----18----------18-----------------|---18---------18----------------||
A|-------17----------17--------------|------17---------17-------------||
E|-----------------------------------|--------------------------------||
B|-15-------15----------15-------15\-|-3-------3----------3-----------||

G|-----------19---------18-18-|-----------19---------18-18--18---18-||
D|---18---------18------------|---18---------18-------------17---17-||
A|------17---------17---------|------17---------17------------------||
E|----------------------------|--------------------------------3----||
B|-3-------3----------3-------|-3-------3----------3----------------||

G|-----------19---------18--------||
D|---18---------18----------------||
A|------17---------17-------------||
E|--------------------------------||
B|-3-------3----------3----10/19\-||

Verse
G|-------------19----------18-18--18-|-------------19----------18-||
D|----18----------18-----------------|----18----------18----------||
A|-------17----------17--------------|-------17----------17-------||
E|-----------------------------------|----------------------------||
B|-15-------15----------15-----------|-15-------15----------15----||

G|-------------19----------18-18--18-|-------------19----------18-||
D|----18----------18-----------------|----18----------18----------||
A|-------17----------17--------------|-------17----------17-------||
E|-----------------------------------|----------------------------||
B|-15-------15----------15-----------|-15-------15----------15----||

G|-------------19----------18-18--18-|-------------19----------18-||
D|----18----------18-----------------|----18----------18----------||
A|-------17----------17--------------|-------17----------17-------||
E|-----------------------------------|----------------------------||
B|-15-------15----------15-----------|-15-------15----------15----||

G|-------------19----------18-18--18-|-------------19----------18------||
D|----18----------18-----------------|----18----------18---------------||
A|-------17----------17--------------|-------17----------17------------||
E|-----------------------------------|---------------------------------||
B|-15-------15----------15-----------|-15-------15----------15-----15\-||

G|-18-18--18-18--|-18-18--18-18-|-18-x-x-18--x-18--------|-x-x-x-18--------x-x-x-18-----||
D|-17-17--17-17--|-17-17--17-17-|-17-x-x--17-x-17--------|-x-x-x-17--------x-x-x-17-----||
A|-10-10--10-10\-|-10-10--10-10-|-10--------------10-11\-|----------10-11\--------------||
E|---------------|--------------|------------------------|------------------------------||
B|---------------|--------------|------------------------|--------------------------15\-||

G|-------------19----------18-18-|-------------19----------18-18-||
D|----18----------18-------------|----18----------18-------------||
A|-------17----------17----------|-------17----------17----------|| x2
E|-------------------------------|-------------------------------||
B|-15-------15----------15-------|-15-------15----------15-------||

G|-------------19----------18-18--18-|-------------19----------18-||
D|----18----------18-----------------|----18----------18----------||
A|-------17----------17--------------|-------17----------17-------||
E|-----------------------------------|----------------------------||
B|-15-------15----------15-----------|-15-------15----------15----||

G|-------------19----------18-18--18-|-------------19----------18-||
D|----18----------18-----------------|----18----------18----------||
A|-------17----------17--------------|-------17----------17-------||
E|-----------------------------------|----------------------------||
B|-15-------15----------15-----------|-15-------15----------15----||

G|-------------19----------18-18--18-|-------------19----------18-||
D|----18----------18-----------------|----18----------18----------||
A|-------17----------17--------------|-------17----------17-------||
E|-----------------------------------|----------------------------||
B|-15-------15----------15-----------|-15-------15----------15----||

G|-------------19----------18-18--18-|-------------19----------18------||
D|----18----------18-----------------|----18----------18---------------||
A|-------17----------17--------------|-------17----------17------------||
E|-----------------------------------|---------------------------------||
B|-15-------15----------15-----------|-15-------15----------15-----15\-||

G|-18-18--18-18--|-18-18--18-18-|-18-x-x-18--x-18--------|-x-x-x-18--------x-x-x-18-----||
D|-17-17--17-17--|-17-17--17-17-|-17-x-x--17-x-17--------|-x-x-x-17--------x-x-x-17-----||
A|-10-10--10-10\-|-10-10--10-10-|-10--------------10-11\-|----------10-11\--------------||
E|---------------|--------------|------------------------|------------------------------||
B|---------------|--------------|------------------------|--------------------------15\-||

G|-x-x-x-18-----x-x-x-18-----|-x-x-x-18-----x-x-x-18-----|-x-x-x-18-----x-x-x-18-----||
D|-x-x-x-17-----x-x-x-17-----|-x-x-x-17-----x-x-x-17-----|-x-x-x-17-----x-x-x-17-----||
A|---------------------------|---------------------------|---------------------------||
E|----------3-3----------3---|----------3-3----------3---|----------3------------3---||
B|-------------------------3-|-------------------------3-|------------3------------3-||

G|-17-17-17-17-----17-17-17----||
D|-16-16-16-16-----16-16-16----||
A|-----------------------------||
E|-------------3---------------||
B|---------------3----------9\-||

Interlude 1
G|-x----------x-x-x-x-|-x--------|-x-x-x---------x-x-x-|-x-x--x-x-x-x-x-x-x-x-||
D|-x----------x-x-x-x-|-x--------|-x-x-x---------x-x-x-|-x-x--x-x-x-x-x-x-x-x-||
A|-x----------x-x-x-x-|-x--------|-x-x-x---------x-x-x-|-x-x--x-x-x-x-x-x-x-x-||
E|-x----------x-x-x-x-|-x--------|-x-x-x---------x-x-x-|-x-x--x-x-x-x-x-x-x-x-||
B|-x--3-x-3-3-x-x-x-x-|-x--3-x-3-|-x-x-x-3-x-3-3-x-x-x-|-x-x--x-x-x-x-x-x-x-x-||

G|-------------19----------18-18--18-|-------------19----------18-||
D|----18----------18-----------------|----18----------18----------||
A|-------17----------17--------------|-------17----------17-------|| x4
E|-----------------------------------|----------------------------||
B|-15-------15----------15-----------|-15-------15----------15----||

Verse
G|-x-x-x--x-x-x-x--x-|-x-x-x--x-x-x---x-||
D|-------------------|------------------||
A|-------------------|------------------|| x4
E|-------------------|------------------||
B|-3-----------------|-3----------------||

G|-18-18--18-18--|-18-18--18-18-|-18-x-x-18--x-18--------|-x-x-x-18--------x-x-x-18-----||
D|-17-17--17-17--|-17-17--17-17-|-17-x-x--17-x-17--------|-x-x-x-17--------x-x-x-17-----||
A|-10-10--10-10\-|-10-10--10-10-|-10--------------10-11\-|----------10-11\--------------||
E|---------------|--------------|------------------------|------------------------------||
B|---------------|--------------|------------------------|--------------------------15\-||

G|-x-x-x-18-----x-x-x-18-----|-x-x-x-18-----x-x-x-18-----|-x-x-x-18-----x-x-x-18-----||
D|-x-x-x-17-----x-x-x-17-----|-x-x-x-17-----x-x-x-17-----|-x-x-x-17-----x-x-x-17-----||
A|---------------------------|---------------------------|---------------------------||
E|----------3-3----------3---|----------3-3----------3---|----------3------------3---||
B|-------------------------3-|-------------------------3-|------------3------------3-||

G|-17-17-17-17-----17-17-17----||
D|-16-16-16-16-----16-16-16----||
A|-----------------------------||
E|-------------3---------------||
B|---------------3----------9\-||

G|-------------19----------18-18--18-|-------------19----------18-||
D|----18----------18-----------------|----18----------18----------||
A|-------17----------17--------------|-------17----------17-------|| x2
E|-----------------------------------|----------------------------||
B|-15-------15----------15-----------|-15-------15----------15----||

Interlude 2
G|-------------19----------18-18--18-|-------------19----------18-||
D|----18----------18-----------------|----18----------18----------||
A|-------17----------17--------------|-------17----------17-------|| x4
E|-----------------------------------|----------------------------||
B|-15-------15----------15-----------|-15-------15----------15----||

Verse
G|-------------19----------18-18--18-|-------------19----------18-||
D|----18----------18-----------------|----18----------18----------||
A|-------17----------17--------------|-------17----------17-------|| x4
E|-----------------------------------|----------------------------||
B|-15-------15----------15-----------|-15-------15----------15----||

G|-18-18--18-18--|-18-18--18-18-|-18-x-x-18--x-18--------|-x-x-x-18--------x-x-x-18-----||
D|-17-17--17-17--|-17-17--17-17-|-17-x-x--17-x-17--------|-x-x-x-17--------x-x-x-17-----||
A|-10-10--10-10\-|-10-10--10-10-|-10--------------10-11\-|----------10-11\--------------||
E|---------------|--------------|------------------------|------------------------------||
B|---------------|--------------|------------------------|--------------------------15\-||

G|-x-x-x-18-----x-x-x-18-----|-x-x-x-18-----x-x-x-18-----|-x-x-x-18-----x-x-x-18-----||
D|-x-x-x-17-----x-x-x-17-----|-x-x-x-17-----x-x-x-17-----|-x-x-x-17-----x-x-x-17-----||
A|---------------------------|---------------------------|---------------------------||
E|----------3-3----------3---|----------3-3----------3---|----------3------------3---||
B|-------------------------3-|-------------------------3-|------------3------------3-||

G|-17-17-17-17-----17-17-17----||
D|-16-16-16-16-----16-16-16----||
A|-----------------------------||
E|-------------3---------------||
B|---------------3----------9\-||

Bass solo
G|---x-----12/13--x-12-12/13--x-12-|---x-----12/13--x-12-12-13-15-17-||
D|-----x---13/14--x-13-13/14--x-13-|-----x---13/14--x-13-13-14-16-18-||
A|-------x-13/14--x-13-13/14--x-13-|-------x-13/14--x-13-13-14-16-18-||
E|---------------------------------|---------------------------------||
B|-5-------------------------------|-5-------------------------------||

G|---x-----12/13--x-12-12/13--x-12-|---x-----12/13--x----/x-------||
D|-----x---13/14--x-13-13/14--x-13-|-----x---13/14--x-------------||
A|-------x-13/14--x-13-13/14--x-13-|-------x-13/14--x-------x-x-x-||
E|---------------------------------|------------------------------||
B|-5-------------------------------|-5----------------x/----------||

G|---x-----12/13--x-12-12/13--x-12-|---x-----12/13--x-14/15--18/-||
D|-----x---13/14--x-13-13/14--x-13-|-----x---13/14--x-15/16--19/-||
A|-------x-13/14--x-13-13/14--x-13-|-------x-13/14--x-15/16--19/-||
E|---------------------------------|-----------------------------||
B|-5-------------------------------|-5---------------------------||

G|---x-----12/13--x-12-12/13--x-12-|---x-----12/13--x-14--------||
D|-----x---13/14--x-13-13/14--x-13-|-----x---13/14--x-15--------||
A|-------x-13/14--x-13-13/14--x-13-|-------x-13/14--x-15--------||
E|---------------------------------|----------------------------||
B|-5-------------------------------|-5-------------------5--5-5-||

G|---x-----12/13--x-12-12/13--x-12-|---x-----12/13--x-12-12-13-15-17-||
D|-----x---13/14--x-13-13/14--x-13-|-----x---13/14--x-13-13-14-16-18-||
A|-------x-13/14--x-13-13/14--x-13-|-------x-13/14--x-13-13-14-16-18-||
E|---------------------------------|---------------------------------||
B|-5-------------------------------|-5-------------------------------||

G|---x-----12/13--x-12-12/13--x-12-|---x-----12/13--x----/x-------||
D|-----x---13/14--x-13-13/14--x-13-|-----x---13/14--x-------------||
A|-------x-13/14--x-13-13/14--x-13-|-------x-13/14--x-------x-x-x-||
E|---------------------------------|------------------------------||
B|-5-------------------------------|-5----------------x/----------||

G|---x-----12/13--x-12-12/13--x-12-|---x-----12/13--x-14/15--18/-||
D|-----x---13/14--x-13-13/14--x-13-|-----x---13/14--x-15/16--19/-||
A|-------x-13/14--x-13-13/14--x-13-|-------x-13/14--x-15/16--19/-||
E|---------------------------------|-----------------------------||
B|-5-------------------------------|-5---------------------------||

G|---x-----12/13--x-12-12/13--x-12-|---x-----12/13--x-14--------||
D|-----x---13/14--x-13-13/14--x-13-|-----x---13/14--x-15--------||
A|-------x-13/14--x-13-13/14--x-13-|-------x-13/14--x-15--------||
E|---------------------------------|----------------------------||
B|-5-------------------------------|-5-------------------5--5-5-||

G|---x-x-17/18--x-17-17/18--x-17-|---x-x-17--17-17-17-17-20---||
D|---x-x-18/19--x-18-18/19--x-18-|---x-x-18--18-18-18-18-21---||
A|--------------x----------------|----------------------------||
E|-0-----17/18----17-17/18--x-17-|-0---------17-17-17-17-20-0-||
B|-------------------------------|----------------------------||

G|---x-x-17/18--x-17-17/18--x-17-|---x-x-17/18--x-18-18/22-22-21-||
D|---x-x-18/19--x-18-18/19--x-18-|---x-x-18/19--x-19-19/23-23-22-||
A|--------------x----------------|--------------x----------------||
E|-0-----17/18----17-17/18--x-17-|-0-----17/18----18-18/22-22-21-||
B|-------------------------------|-------------------------------||

G|---x-----12/13--x-12-12/13--x-12-|---x-----12/13--x-12-12-13-15-17-||
D|-----x---13/14--x-13-13/14--x-13-|-----x---13/14--x-13-13-14-16-18-||
A|-------x-13/14--x-13-13/14--x-13-|-------x-13/14--x-13-13-14-16-18-||
E|---------------------------------|---------------------------------||
B|-5-------------------------------|-5-------------------------------||

G|---x-----12/13--x-12-12/13--x-12-|---x-----12/13--x----/x-------||
D|-----x---13/14--x-13-13/14--x-13-|-----x---13/14--x-------------||
A|-------x-13/14--x-13-13/14--x-13-|-------x-13/14--x-------x-x-x-||
E|---------------------------------|------------------------------||
B|-5-------------------------------|-5----------------x/----------||

G|---x-----12/13--x-12-12/13--x-12-|---x-----12/13--x-14/15--18/-||
D|-----x---13/14--x-13-13/14--x-13-|-----x---13/14--x-15/16--19/-||
A|-------x-13/14--x-13-13/14--x-13-|-------x-13/14--x-15/16--19/-||
E|---------------------------------|-----------------------------||
B|-5-------------------------------|-5---------------------------||

G|---x-----12/13--x-12-12/13--x-12-|---x-----12/13--x-14--------||
D|-----x---13/14--x-13-13/14--x-13-|-----x---13/14--x-15--------||
A|-------x-13/14--x-13-13/14--x-13-|-------x-13/14--x-15--------||
E|---------------------------------|----------------------------||
B|-5-------------------------------|-5-------------------5--5-5-||

G|---x-x-17/18--x-17-17/18--x-17-|---x-x-17--17-17-17-17-20---||
D|---x-x-18/19--x-18-18/19--x-18-|---x-x-18--18-18-18-18-21---||
A|--------------x----------------|----------------------------||
E|-0-----17/18----17-17/18--x-17-|-0---------17-17-17-17-20-0-||
B|-------------------------------|----------------------------||

G|---x-x-17/18--x-17-17/18--x-17-|---x-x-17/18--x-18-18/22-22-21-||
D|---x-x-18/19--x-18-18/19--x-18-|---x-x-18/19--x-19-19/23-23-22-||
A|--------------x----------------|--------------x----------------||
E|-0-----17/18----17-17/18--x-17-|-0-----17/18----18-18/22-22-21-||
B|-------------------------------|-------------------------------||

G|---x-----12/13--x-12-12/13--x-12-|---x-----12/13--x-12-12-13-15-17-||
D|-----x---13/14--x-13-13/14--x-13-|-----x---13/14--x-13-13-14-16-18-||
A|-------x-13/14--x-13-13/14--x-13-|-------x-13/14--x-13-13-14-16-18-||
E|---------------------------------|---------------------------------||
B|-5-------------------------------|-5-------------------------------||

G|---x-----12/13--x-12-12/13--x-12-|---x-----12/13--x----/x-------||
D|-----x---13/14--x-13-13/14--x-13-|-----x---13/14--x-------------||
A|-------x-13/14--x-13-13/14--x-13-|-------x-13/14--x-------x-x-x-||
E|---------------------------------|------------------------------||
B|-5-------------------------------|-5----------------x/----------||

G|---x-----12/13--x-12-12/13--x-12-|---x-----12/13--x-14/15--18/-||
D|-----x---13/14--x-13-13/14--x-13-|-----x---13/14--x-15/16--19/-||
A|-------x-13/14--x-13-13/14--x-13-|-------x-13/14--x-15/16--19/-||
E|---------------------------------|-----------------------------||
B|-5-------------------------------|-5---------------------------||

G|---x-----12/13--x-12-12/13--x-12-|---x-----12/13--x-14--------||
D|-----x---13/14--x-13-13/14--x-13-|-----x---13/14--x-15--------||
A|-------x-13/14--x-13-13/14--x-13-|-------x-13/14--x-15--------||
E|---------------------------------|----------------------------||
B|-5-------------------------------|-5-------------------5--5-5-||





Comments


Popular Primus tabs & chords
Frizzle Fry 4 Bass Tabs
John The Fisherman Bass Tabs
Master Of Puppets 4 Bass Tabs
Over The Electric Grapevine Bass Tabs
The Air Is Getting Slippery Bass Tabs
The Pressman Bass Tabs
Too Many Puppies 2 Bass Tabs
Welcome To This World 5 Bass Tabs
Devil Went Down To Georgia Tabs
Southpark Tabs


Song lyrics



↑ Back to top | Tablatures and chords are parodies/interpretations of the original songs. You may use it for private study, scholarship, research or language learning purposes only
© 2014 AZChords.com Contact us | Privacy policy | DMCA | Add/correct tabs | Request tabs | Top 50 tabs