>
 >
Dirty Drowning Man 2

Dirty Drowning Man 2 Bass Tabs

Primus - Dirty Drowning Man 2 chords, tabs, tablatures, lyrics

Guitar lessons | Add/correct | Request | Top 50 tabs Artists:  A B C D E F G H I J K L M N O P Q R S T U V W X Y Z 0-9

Dirty Drowning Man 2 Bass Tabs – Primus

CD, Sheet music, Poster

Do you like Dirty Drowning Man 2? Share with your friends now
Bass TabsBass Tabs v2Bass Tabs v3
Intro
G|---X---14---x---15---x---14---x---12---x----14---x---15---x---14-|
D|-----------------------------------------------------------------|
A|-0---0----0---0----0---0----0---0----0----0----0---0----0---0----|
E|-----------------------------------------------------------------|

G|---x---17---X---14---x---15---x---14---x---12---x----14---x---14-|
D|-----------------------------------------------------------------|
A|-0---0----0---0----0---0----0---0----0----0----0---0----0---0----|
E|-----------------------------------------------------------------|

         AFTER INTRO ALSO CHORUS
G|----------------------------3x---|---------|
D|---------------------------------|---------| < ONLY ON AFTER INTRO
A|0--0-0-0h1p0--0--0--0-0-0H1------|-3--5--0-|
E|-------------------------------3-|---------|

             VERSE
G|------------------------------|
D|------------------------------|
A|0-RING----00----00---0--1-----|
E|---------------------------3--|

          PRE - CHORUS
G|-------------7---5--4-|  he does different variations too
D|--5---5-5--0----------|  on this part
A|----------------------|
E|----------------------|

      SOLO A
G|----------------2--|
D|--x---2-3---x------| not exact but close
A|-------------------|
E|-0--0-----0---0----|

      S0LO B
G|----------|
D|------2-3-| JUST KEEPS REPEATING
A|----------|
E|-0-X------|

      OUTRO
G|-------3-2-|
D|-----------| DONT POP ON THAT LAST 2 BUT SLAP POP ON THE REST
A|-0-0H1-----|
E|-----------|





Comments


Popular Primus tabs & chords
Dirty Drowning Man 1 Bass Tabs
Fisticuffs 4 Bass Tabs
Ground Hog's Day 1 Bass Tabs
Groundhog Day Bass Tabs
Heckler Bass Tabs
Is It Luck? 1 Bass Tabs
Toys Go Winding Down 2 Bass Tabs
Wynonas Big Brown Beaver 2 Bass Tabs
Shake Hands With Beef Tabs
Year Of The Parrot Tabs


Song lyrics



↑ Back to top | Tablatures and chords are parodies/interpretations of the original songs. You may use it for private study, scholarship, research or language learning purposes only
© 2014 AZChords.com Contact us | Privacy policy | DMCA | Add/correct tabs | Request tabs | Top 50 tabs