» » »

Primus, Del Davis Tree Farm Bass tabs (ver.1)

Artists:  A B C D E F G H I J K L M N O P Q R S T U V W X Y Z # 

Del Davis Tree Farm Bass tabs (ver.1)

Primus Tabs
 Rating:
4/5 (4 votes)
Del Davis Tree Farm lessons Tabs too difficult? Try these video lessons and learn fast
1
                #------------------------------------------------------------------------------##
===================
"Del Davis Tree Farm" from Tales From the Punchbowl
===================


You should use a 6-string or a 5-string, but I have a four with E tuned down
to B and it sounds fine, But I'll tab it in 5 string format.

Intro: 
G--------- |(t)
D---------.|(w)
A--0-0-5--.|(i)
E--------- |(c)
B--------- |(e)-0-------------------


Verse:
G-------9---------7-10------9------- |
D-------9---------7-10------9-------.|
A-----------------------------------.|
E----------------------------------- |
B--0000---000000-------0000---000x-x |


Chorus:
G-8-8-6-6-8-8-6-10- |
D------------------.|
A------------------.|
E------------------ |
B------------------ |

There's also a bunch of stuff he does on the E and B strings with slides and
short trills and stuff.


Getting tuned to this particular album:
What I do is I Listen to "Southbound Pachyderm" and tune my A to his when he
hits it endlessly in the beginning. Then, I tune each string to that one.

/-------------------------------------------\
|                                           |                                       |
|   Any mistakes in this file, please       |
|   E-Mail me with the changes. If you want |                                       |
|   to trade tabs, drop me a line.          |
\-------------------------------------------/
            
Submit corrections

comments powered by Disqus
↑ Back to top | Primus Bass for Del Davis Tree Farm. Lyrics for acoustic guitar and electric guitar. 1 Tablatures and chords are parodies/interpretations of the original songs. You may use it for private study, scholarship, research or language learning purposes only