» » »

Del Davis Tree Farm Bass tabs (ver.3)

Artists:  A B C D E F G H I J K L M N O P Q R S T U V W X Y Z # 

Del Davis Tree Farm Bass tabs (ver.3)

Primus
Rating:
0/5 (0 votes)

Hard to play? Try these video lessons and learn fast.
                Intro:
G----------------------------|
D----------------------------|
A-0-0-3--0-0-3--0-0-3--0-0-3-|
E----------------------------|
B----------------------------|
  s s s  s s s  s s s  s s s

Verse:
        V ^           V ^        V ^
G-------9-9-----------7-10-------9-9-------|
D-------9-9-----------7-10-------9-9-------|
A------------------------------------------|
E------------------------------------------|
B-0-0-x-----x-0-0-0-x------0-0-x-----0-x-x-|
  s s s     s s s s s      s s s     s s s

Chorus:
  V ^ V ^ V ^ V
G-8-8-8-6-6-6-10-|
D-8-8-8-6-6-6-10-|
A----------------|
E----------------|
B----------------|

Weird part: (2:27)
        V         V       V ^
G-------9---------9-------7-10-|-------0-0-0-0-0-0-0-0-0-0-0-0-0-0-0-|
D-------9---------9-------7-10-|-------------------------------------|
A------------------------------|-------------------------------------|
E------------------------------|-0~~~~-------------------------------|
B-0-0-x-----0-0-x---0-0-x------|-------------------------------------|
            
Hard to play? Try these video lessons and learn fast. | Correct




comments powered by Disqus
↑ Back to top | Tablatures and chords are parodies/interpretations of the original songs. You may use it for private study, scholarship, research or language learning purposes only