» » »

Cpt Shiner Bass tabs (ver.1)

Artists:  A B C D E F G H I J K L M N O P Q R S T U V W X Y Z # 

Cpt Shiner Bass tabs (ver.1)

Primus
Rating:
0/5 (0 votes)

Hard to play? Try these video lessons and learn fast.
                Riff A: (once)
A--3---3---2-3---3---2--
E----3---3-----3---3----

Riff B: (once)
G----------5-9999-7-5---9999-7-5---------------------5-9999-7-5----
D----2-2/5------------5----------5-------------2-2/5------------5--
A--3-------------------------------5-5h7p5-7/3---------------------
E------------------------------------------------------------------

Riff C: (once)
G--/9-7-5--5-------------
D------------5-7--5------
A-------------------7-5--
E------------------------

Riff A: (once)
Riff B: (once)
Riff C: (once)
Riff A: (once)
Riff B: (once)
Riff C: (once)
Riff A: (once)

Riff D: (once)
A--3---3---2-3--
E----3---3------

***rest for noises (0:58 - 1:15)***
            
Hard to play? Try these video lessons and learn fast. | Correct




comments powered by Disqus
↑ Back to top | Tablatures and chords are parodies/interpretations of the original songs. You may use it for private study, scholarship, research or language learning purposes only